Guitaretab - guitar tabs
Song name
# A B C D E F G H I J K L M N O P Q R S T U V W X Y Z

Las Pastillas Del Abuelo - Lo Mas Lindo tab

Bueno, esta es mi primera transcripcion, y esta perfecta... suena excelente y esta completita...
cualquier sugerencia, o critica, o correccion, o lo q quieran.. savarela_88@hotmail.com
Aguanten las pastillas !!!

ACORDES:> Am G F


e-------------------|
B-----0-------------|
G----0-0---  Riff 1-|
D---0---0-----------|
A-------------------|
E-3-----------------|


e-------------------|
B-----0-------------|
G----0-0---  Riff 2-|
D---0---0-----------|
A-------------------|
E-1-----------------|


e-------------------|
B-----0-------------|
G----0-0---  Riff 3-|
D---0---0-----------|
A-------------------|
E-0-----------------|


e-------0--------------|
B----1---1-------------|
G---0-0---0--   Riff 4-|
D--2---2---2-----------|
A-3--------------------|
E----------------------|

Intro: Riff 1, Riff 2, Riff 3, Riff 4

Riff 1
Lo más lindo del mar
Riff 2
es cuando por completo
Riff 3
lo moja la hermosura
Riff 4
de tu pelo.

Riff 1
Lo gracioso del sol
Riff 2
es cuando no ve nada,
Riff 3
le encandila los ojos
Riff 4
la luz de tu mirada.

Am                          F
Lo lindo de la noche y las estrellas
G                               Am
es que tu rostro habita en todas ellas,
[ Tab from: http://www.guitaretab.com/l/las-pastillas-del-abuelo/88384.html ]
Am                       F     G
lo lindo de mi vida es el saber
Am     G           F-G
que la gobierna tu ser.

Ahora hace este arpegio...
E-------2h3P2------------2--------|
B-----3-------3--------3----3-----|
G---2-----------2----2--------2---| 
D-0----------------0--------------|
A---------------------------------|
E---------------------------------|
(En posición D)

Intermedio: Riff 1, Riff 2, Riff 3, Riff 4

Riff 1		         Riff 2
Lo lindo de tocarte es que me mata,
Riff 3 		            Riff 4
no me das tiempo ni de entrar en coma,
Riff 1	              Riff 2
lo más lindo del viento es cuando trata
Riff 3                        Riff 4
ir de la mano junto con tu aroma.

Am	F
Pero eres para mí como la luna,
G	   Am
que podría contemplarte hasta ser viejo,
Am	F     G
radiante y más hermosa que ninguna

Am   G           F-G    Am   G           F-G
pero siempre tan lejos, pero siempre tan lejos
Am   G           F-G
pero siempre tan lejos

E  F-G   E  F-G   E  F-G

Am   G           F-G    Am   G           F-G
pero siempre tan lejos, pero siempre tan lejos
Am   G           F-G
pero siempre tan lejos

E-------2h3P2------------2--------|
B-----3-------3--------3----3-----|
G---2-----------2----2--------2---| 
D-0----------------0--------------|
A---------------------------------|
E---------------------------------|
(En posición D)


Outro: Riff 1, Riff 2, Riff 3, Riff 4
Related for Lo Mas Lindo tab
Advertisement will be closed in 10 seconds