Song name
# A B C D E F G H I J K L M N O P Q R S T U V W X Y Z

Las - Way Out chords

Highlighted       Show chord diagrams
-----------------------------------------------------------------------------
                             Way Out - The La's
-----------------------------------------------------------------------------

Tuning: Open E (E,B,G#,E,B,E), with Capo at 4th fret.

Chords used; (relative to capo)

    A/C#  Dadd9  E   [ch]B/E[/ch]  D/E  Bm  B
e |--0------0----0---------0----2--7----------------------------------------|
B |--2------3----0----4----3----3--7----------------------------------------|
G#|--1------1----0----3----1----3--7----------------------------------------|
E |--0------2----0----2----2----2--7----------------------------------------|
B |--2------3----0----4----3----0--7----------------------------------------|
E |--------------0-----------------7----------------------------------------|

Intro
A/C# Dadd9 E

Verse

        A/C#  Dadd9  E
Give me one   last   kiss
   A/C#       Dadd9  E
Before I walk out of this

[ch]B/E[/ch]               A/C#
Give   me   some   money
[ch]B/E[/ch]                A/C#
'Cos I'm right in a hurry
[ch]B/E[/ch]                A/C#
To get a way out of this
[ch]B/E[/ch]                A/C#
But I'm telling you this
[ch]B/E[/ch]                A/C#
That I don't aim to miss
[ch]B/E[/ch]                E        D/E    A/C#
To get a way out of this...

Chorus

E               Bm          D/E    A/C#
Give it all you got now
E               Bm          D/E    A/C#
Give it all you got now - Yeah give a little
E               Bm          D/E    A/C#
Give it all you got now
E               Bm          D/E    A/C#   B    ////
Give it all you got now -   Yeah   give a little

e |----7---------------------------------------------|
B |----7---------------------------------------------|
G#|----7---------------------------------------------|
E |----7-------------------X-------X-----------------|
B |----7------------0------X-------X-----------------|
E |----7---9---11----------X-------X-----------------|

  Repeat above for 2nd Verse and Chorus

Verse 2

Let me tell you this
Before I walk out of this
Some say it's sunny but
I don't think that's funny
And I'm telling you this
'Cos I don't aim to miss
To get a way out of this...

Chorus

Give it all you got now
Give it all you got now - Yeah give a little
Give it all you got now
Give it all you got now - Yeah give a little

e |----7---------------------------------------------|
B |----7---------------------------------------------|
G#|----7---------------------------------------------|
E |----7-------------------X-------X-----------------|
B |----7------------0------X-------X-----------------|
E |----7---9---11----------X-------X-----------------|

Solo

 Strum Verse chords again once
 
   A/C#       Dadd9  E
   A/C#       Dadd9  E

[ch]B/E[/ch]               A/C#
[ch]B/E[/ch]                A/C#
[ch]B/E[/ch]                A/C#
[ch]B/E[/ch]                A/C#
[ch]B/E[/ch]                A/C#
[ch]B/E[/ch]                E        D/E    A/C#

Chorus

E               Bm          D/E    A/C#
Give it all you got now
E               Bm          D/E    A/C#
Give it all you got now - Yeah give a little
E               Bm          D/E    A/C#
Give it all you got now
E               Bm          D/E    A/C#   B    ////
Give it all you got now -   Yeah   give a little

e |----7---------------------------------------------|
B |----7---------------------------------------------|
G#|----7---------------------------------------------|
E |----7-------------------X-------X-----------------|
B |----7------------0------X-------X-----------------|
E |----7---9---11----------X-------X-----------------|


      A/C# Dadd9  E
Bid me one last   wish
  A/C#   Dadd9       E
Before I walk out of this

[ch]B/E[/ch]         A/C#
Give me the hammer to 
[ch]B/E[/ch]         A/C#
shatter the dream
[ch]B/E[/ch]         A/C#
To get a way out of this 
[ch]B/E[/ch]         A/C#
I'll get a way out of this
[ch]B/E[/ch]         A/C#
I'll get a way out of this
[ch]B/E[/ch]         A/C#
I'll get a way out of this
[ch]B/E[/ch]         A/C#
I'll get a way out of this
[ch]B/E[/ch]         A/C#           [ch]B/E[/ch]
I'll get a way out of this

Tap to rate this tab
 
# A B C D E F G H I J K L M N O P Q R S T U V W X Y Z