Song name
# A B C D E F G H I J K L M N O P Q R S T U V W X Y Z

Last Dinosaurs - Sunday Night tab

-----------------------------------------------------------------------------
                       Last Dinosaurs - Sunday Night
-----------------------------------------------------------------------------
Tabbed by: Marcus Marchal (Warflojd)
E-mail: mackan_003_94@hotmail.com

Tuning: Standard
No capo

Intro:
D# - Bb

e|---------------------------------------------|
B|-----------6-------------------6-------------|
G|-----7--5-----7----------7--5-----7----------|
D|-----------------8-------------------8--8\7--|
A|--6-------------------6----------------------|
E|---------------------------------------------|

e|-----------------------------------|
B|-----------------------------------|
G|--7--5--------------5--5-----5--5--|
D|--------7--5-----------------------|
A|--------------8--8--------8--------|
E|-----------------------------------|  (x2)

Verse 1:
We managed to play all our cards all wrong
If we hadn't taken shit seriously
Then the present would be alright

e|-----------------------------------|
B|-----------6-----------------------|
G|-----7--5-----7--------------------|
D|-----------------8--8--8--8--8--8--|
A|--6--------------------------------|
E|-----------------------------------|  (x2)

e|-----------------------------------------|
B|-----------------------------------------|
G|--7--5--------------------------5-----5--|
D|--------7--5-----------------------------|
A|--------------8--8--8--8--8--8-----8-----|
E|-----------------------------------------|  (x2)

D#
My thoughts are decent but sometimes I lose control
Patterns and habits continue but I've got soul
Bb
Can you imagine a world where there is no depth
Absence of color and nothing to test our heads

Chorus:
All night I've been telling her to slow down
I've been warning her all night
She's been crying her eyes out

e|-----------------------------------------------|
B|--6--6--6--6-----------------------------------|
G|--------------5--5--7--5--5--7--5--5--7--5-----|
D|--------------------------------------------8--|
A|-----------------------------------------------|
E|-----------------------------------------------|

e|-----------------------------------------------|
B|--6--6--6--6--------------------------------11-|
G|--------------5--5--7--5--5--7--5--5--7--5-----|
D|-----------------------------------------------|
A|-----------------------------------------------|
E|-----------------------------------------------|
(x2)

Verse 2:
I've given too much of my heart away
Imagine how different tomorrow would be
If we knew where to draw the line

e|-----------------------------------|
B|-----------6-----------------------|
G|-----7--5-----7--------------------|
D|-----------------8--8--8--8--8--8--|
A|--6--------------------------------|
E|-----------------------------------|  (x2)

e|-----------------------------------------|
B|-----------------------------------------|
G|--7--5--------------------------5-----5--|
D|--------7--5-----------------------------|
A|--------------8--8--8--8--8--8-----8-----|
E|-----------------------------------------|  (x2)

D#
You left me hanging when you knew I couldn't dance
I broke your promise and you flooded any chance
Bb
I don't intend to rewrite what belongs to you
Oh I was born just so you would learn how to choose

Chorus:
All night I've been telling her to slow down
I've been warning her all night
She's been crying her eyes out

e|-----------------------------------------------|
B|--6--6--6--6-----------------------------------|
G|--------------5--5--7--5--5--7--5--5--7--5-----|
D|--------------------------------------------8--|
A|-----------------------------------------------|
E|-----------------------------------------------|

e|-----------------------------------------------|
B|--6--6--6--6--------------------------------11-|
G|--------------5--5--7--5--5--7--5--5--7--5-----|
D|-----------------------------------------------|
A|-----------------------------------------------|
E|-----------------------------------------------|
(x2)

Instrumental part:
e|------------8------10---------8---------|
B|-----8--11-----11------8--11-----10-----|
G|--8----------------------------------7--|
D|----------------------------------------|
A|----------------------------------------|
E|----------------------------------------|

e|--------------------------------------------------|
B|--8--8--8--8--8--8--8--8--8--8--8--8--8--8--8--8--|
G|--------------------------------------------------|
D|--------------------------------------------------|
A|--------------------------------------------------|
E|--------------------------------------------------|

e|------------------------------------------------------------------|
B|--10--10--10--10--10--10--10--10--10--10--10--10--10--10--10--10--|
G|------------------------------------------------------------------|
D|------------------------------------------------------------------|
A|------------------------------------------------------------------|
E|------------------------------------------------------------------|

e|------------------------------------------------------------------|
B|--11--11--11--11--11--11--11--11--11--11--11--11--11--11--11--11--|
G|------------------------------------------------------------------|
D|------------------------------------------------------------------|
A|------------------------------------------------------------------|
E|------------------------------------------------------------------|  (x2)

D#
No you don't know me anymore
Eb
No you don't know me anymore
Gm
No you don't know me anymore
Gm
No you don't know me anymore

D#                                      Bb
We were in the right place at the wrong time
                          D#
If only you could read my mind
                      Eb            Gm
Read my mind, read my mind, read my mind
(x2)

Everybody here who cares won't dare to try me
No one I know up there will stand beside me
(x4)

e|-----------------------------------------------|
B|--6--6--6--6-----------------------------------|
G|--------------5--5--7--5--5--7--5--5--7--5-----|
D|--------------------------------------------8--|
A|-----------------------------------------------|
E|-----------------------------------------------|

e|-----------------------------------------------|
B|--6--6--6--6--------------------------------11-|
G|--------------5--5--7--5--5--7--5--5--7--5-----|
D|-----------------------------------------------|
A|-----------------------------------------------|
E|-----------------------------------------------|
(x4)
Tap to rate this tab
 
# A B C D E F G H I J K L M N O P Q R S T U V W X Y Z