Last Exit - Acoustic Song tab

e---------------------------------------------------------------------------|
b---------3--------3-----------------3--------3-----------------3--------3--|
g------0--------0--------0--------0--------0--------0--------0--------0-----|
d---2--------2--------2--------0--------0--------0--------------------------|
a---------------------------------------------------------2--------2--------|
e---------------------------------------------------------------------------|

e---------------------------------------------------------------------------|
b----------------3--------3-------------------------------------------------|
g------0------0--------0--------0-------------------------------------------|
d---------------------------------------------------------------------------|
a---2------3--------3--------3----------------------------------------------|
e---------------------------------------------------------------------------|


http://www.lastexit-band.com/index.php/startseite
Tap to rate this tab
 
# A B C D E F G H I J K L M N O P Q R S T U V W X Y Z