Song name
# A B C D E F G H I J K L M N O P Q R S T U V W X Y Z

Last Tuesday - Its Not Too Late tab

Help us improve GuitareTab! Take a short survey!
Last Tueday

It's Not Too Late


e----------------|--------------|---------------|----------------------------|
b----------------|--------------|---------------|----------------------------|
g-------------8/4|-------------8|------------8~~|----------------------------|
d-------------8/4|-------------8|------------8~~|----------------------------|
a-6-6-6-6-6-6-6/2|-6-6-6-6-6-6-6|6-6-6-6-6-6-6~~|4-4-4-4-4-4-4-4-2-2-2-4-4-4-|
E----------------|--------------|---------------|----------------------------|

e--------------|----------------------------|-------------------------------|
b--------------|----------------------------|-------------------------------|
g-------------8|----------------------------|-------------------------------|
d-------------8|----------------------------|-------------------------------|
a-6-6-6-6-6-6-6|-4-4-4-4-4-4-4-4-2-2-2-4-4-4|...this is so serious...-------|
E--------------|----------------------------|-------------------------------|

I submitted this tab so people could tab out more of the song.  Especially the solo.  If 
enjoy tabbing solo's; tab out this one.
Related for Its Not Too Late tab