Song name
# A B C D E F G H I J K L M N O P Q R S T U V W X Y Z

Laura Izibor - Carousel tab

#----------------------------------PLEASE NOTE---------------------------------#
#This file is the author's own work and represents their interpretation of the #
#song. You may only use this file for private study, scholarship, or research. #
#------------------------------------------------------------------------------#
Notes:

This song is from the soundtrack of the movie P.S. I love you.
I found it always ending up in my head so I figured 
I might as well learn how play it, but found no tabs on the world wide web.
Enjoy!



INTRO and VERSES:

The following guitar part follows almost through the entire song, stopping only at choruses.

|--------------------------0---0---------------------------------0-----0-------|
|--1--0--3---3---3---3--2---------------1--0--3----3----3--3--2-----2----------|
|----------0---0-----2-------2-------------------0---------2-------------------|
|--0---------------------------------2--0-----------------------------------2--|
|---------------------------------0--------------------------------------0-----|
|----------------------------------------------------3-------------------------|

CHORUS CHORDS:

    F#    C    F    E
|---2-----0----1----0--|
|---2-----1----1----0--|
|---2-----0----1----0--|
|---3-----0----2----1--|
|---4-----2----3----2--|
|---4-----3----3----2--|
|---2-----0----1----0--|


Lyrics:

Cause she was his lover
She was his friend
He was her everything
Someone to depend

When she wakes up
In the mornin'
And all his things are gone
Sshe looks into the mirror
Thinkin' what did i do wrong

F#
There he goes
C
But i gotta keep movin'
F
There ain't nothing
E
To lose for?

Everyday
Has it's ups and downs
You think you're lost
You will be found
Most of us
Want the same old things
Someone to love
What it brings
I know it's hard
It gets tough sometimes
You gotta hold on
Like a carousel
Going around
And around
And around
And around

She was so young
But she was in love
He promised her everything
That she could dream of

When she wakes up
In the mornin'
Finds that he ain't there
She looks into the mirror
Thinking how did i get here

F#
There he goes
C
But i gotta keep movin'
F
There aint nothin'
E
To lose for?

Everyday has
It's ups and downs
You think you're lost
You will be found
Most of us
Want the same old things
Someone to love
What it brings
I know it's hard
It gets tough sometimes
You gotta hold on
Like a carousel
Ggoing around
And around
And around
And around

Yeahhhh

Everyday has
It's ups and downs
You think you're lost
You will be found
Most of us
Want the same old things
Someone to love
What it brings
I know it's hard
It gets tough sometimes
You gotta hold on
Like a carousel
Going around
And around (3x)
Tap to rate this tab
 
# A B C D E F G H I J K L M N O P Q R S T U V W X Y Z