Song name
# A B C D E F G H I J K L M N O P Q R S T U V W X Y Z

Laura Pausini - Without You chords

Highlighted       Show chord diagrams
Without Capo
------------

Intro - C# A#m x2

C#     A#m
Close your eyes and say good night
C#     A#m
and hold me till the morning light
F#     G#
when the sun comes shinning through
A#m
I'll kiss you
F#
one last time

A#m     F#     G#
and I'll begin to live my life without you

C#     A#m
wish that I could make you stay
C#     A#m
but I know I have no power to persuade
F#     G#
the heart will do what it must do
A#m
So kiss me
F#
one last time

A#m    F#     G#
and tell me how to live my life without you

C#
Cause I love you without and ending
F#
cause I need you to be my everything
A#m     G#     C#      G#
tell me the meaning of a life without you with me
C#
when the night falls I'll still be standing

With Capo (1st Fret)
--------------------

Intro - C  Am x2

C     Am
Close your eyes and say good night
C     Am
and hold me till the morning light
F     G
when the sun comes shinning through
Am
I'll kiss you
F
one last time

Am       F       G
and I'll begin to live my life without you

C      Am
wish that I could make you stay
C      Am
but I know I have no power to persuade
F      G
the heart will do what it must do
Am
So kiss me
F
one last time

Am     F     G
and tell me how to live my life without you

C
Cause I love you without and ending
F
cause I need you to be my everything
Am     G      C      D
tell me the meaning of a life without you with me
C#
when the night falls I'll still be standing


To play over the song:
----------------------


Menor penatonica de A# (0:00-2:13)

|---|---|---|---|---|-6-|---|---|-9-|---|---|---|---|
|---|---|---|---|---|-6-|---|---|-9-|---|---|---|---|
|---|---|---|---|---|-6-|---|-8-|---|---|---|---|---|
|---|---|---|---|---|-6-|---|-8-|---|---|---|---|---|
|---|---|---|---|---|-6-|---|-8-|---|---|---|---|---|
|---|---|---|---|---|-6-|---|---|-9-|---|---|---|---|

Menor pentatonica de C (2:13-3:31)

|---|---|---|---|---|---|---|-8-|---|---|-11|---|
|---|---|---|---|---|---|---|-8-|---|---|-11|---|
|---|---|---|---|---|---|---|-8-|---|-10|---|---|
|---|---|---|---|---|---|---|-8-|---|-10|---|---|
|---|---|---|---|---|---|---|-8-|---|-10|---|---|
|---|---|---|---|---|---|---|-8-|---|---|---|---|


Menor pentatonica de D(3:31-END)

|---|---|---|---|---|---|---|---|---|-10|---|---|-13|---|-----|
|---|---|---|---|---|---|---|---|---|-10|---|---|-13|---|-----|
|---|---|---|---|---|---|---|---|---|-10|---|-12|---|---|-----|
|---|---|---|---|---|---|---|---|---|-10|---|-12|---|---|-----|
|---|---|---|---|---|---|---|---|---|-10|---|-12|---|---|-----|
|---|---|---|---|---|---|---|---|---|-10|---|---|--13|---|----|

(Special thanks to Pac)
Tap to rate this tab
# A B C D E F G H I J K L M N O P Q R S T U V W X Y Z