Song name
# A B C D E F G H I J K L M N O P Q R S T U V W X Y Z

Laurence Jalbert - Tomber En Amour tab

Help us improve GuitareTab! Take a short survey!
 tomber en amour tab by laurence jalbert

  MI en re

|----0---0---------0---0--------------------|
|----3-------------3-------3----------------|
|----2-2---2-2-----2-2---2--------0-0-0---0-|
|--0------------------------------0-----0---|
|---------------3---------------2-----------|
|-------------------------------------------|

|------------------------------0----|
|------------------------------3----|
|-----0----------0h2p0---------2----|
|---0------0-0h3---------------0----|
|-3------2--------------------------|
|-----------------------2/3-0-------|

|-----------------------------0-----|
|-3---------------------------3-----|
|-2--2----------0h2p0---------2-----|
|------0---0h3----------------0-----|
|-----------------------------------|
|----------------------2/3-0--------|

|---------0-----0---0-----------------|
|-3---3---3-----3-------3-------------|
|-2-------2-----2-2---2-----0-0-0---0-|
|-------0-------------------0-----0---|
|------------3------------2-----------|
|-------------------------------------|

|------------------------------0----|
|------------------------------3----|
|-----0----------0h2p0---------2----|
|---0------0-0h3---------------0----|
|-3------2--------------------------|
|-----------------------2/3-0-------|

|-----------------------------0-----|
|-3---------------------------3-----|
|-2--2----------0h2p0---------2-----|
|------0---0h3----------------0-----|
|-----------------------------------|
|----------------------2/3-0--------|




steve,,,     pompom020366@hotmail.com    pompom@sympatico.ca




Related for Tomber En Amour tab