Song name
# A B C D E F G H I J K L M N O P Q R S T U V W X Y Z

Lazytown - Youre A Pirate tab

INTRO:
E------------------------------------------------------------------------|
B------------------------------------------------------------------------|
G------------------------------------------------------------------------|
D-----------------------0------------------------------------------------|
A-1--1--3-1----------3----3--1-------------------------------------------|
E-----------3-1---1------------------------------------------------------|

MAIN RIFF:
E-----------------------------------------------------------------------|
B-----------------------------------------------------------------------|
G-----------------------------------------------------------------------|
D---------------------------3-3-3---------------------0-----------------|
A-1--1--3-1-----1-1-1-1-1-3-------1--1--3-1---------3---3--1------------|
E-----------3-1-----------------------------3-1---1---------------------|

You can play this instead if you want to:
E-----------------------------------------------------------------------|
B-----------------------------------------------------------------------|
G-3---3----------------------3-3-3-3---3---3---------------------3-3----|
D-3---3--3-3-3-3---3-3-3-3----3-3-3-3---3---3-----------3---3-3---3-3---|
A-1---1--3-3-3-3---3-3-3-3----1-1-1-1---1---1-3-3-3-3---3---3-3---1-1---|
E-------1-1-1-1---1-1-1-1--------------------1-1-1-1---1---1-1----------|

Then it goes into this:
E-----------------------------------------------------------------------|
B-----------------------------------------------------------------------|
G-----------------------------------------------------------------------|
D-----------------------------------------------------------------------|
A-------------------2--2-2-2--4--4-4-4-----------------------2--4-4-4---|
E-2--2-2-2-2--2-2-2------------------------2--2-2-2-2--2-2-2----------2-|

Then that pink haired girl sings this thing and you play the main riff under it. Repeat 
whole song again once, and then you shift the main riff up one tone to this:
E-----------------------------------------------------------------------|
B-----------------------------------------------------------------------|
G-----------------------------------------------------------------------|
D----------------------------4-4-4--------------------------------------|
A-2--2--4-2-----2-2-2-2--2-4--------2--2--4-2--------4--6--4--2---------|
E-----------4-2-------------------------------4-2--2--------------------|

http://www.lazytown.com/
Tap to rate this tab
 
# A B C D E F G H I J K L M N O P Q R S T U V W X Y Z