Song name
# A B C D E F G H I J K L M N O P Q R S T U V W X Y Z

Lds Hymnbook - Be Still My Soul tab

----------------
Be Still My Soul
----------------
Tabbed by: Apollo11joe
Email:Apollo11joe@gmail.com
Tuning: standard

Verse 1
e|------------------------------------------------------------------------------------|
B|--------------------------------------------------0---------------------------------|
G|-------0----------------------0-------------2-2-2--0-0-3-3---1--2-1--1---------1-1--|
D|-4-2-4---4-2-4-0-2-2-4-4-2-4---4-2-4-0-2-4---------------3-3-------4--2-2-4-4-------|
A|------------------------------------------------------------------------------------|
E|------------------------------------------------------------------------------------|

e|------1----0-0----------------------------|
B|4-4-4--2-2----0-0-3-3-2-0-2---------------|
G|-----------------------------2-2-4-4-2-2--|
D|------------------------------------------|
A|------------------------------------------|
E|------------------------------------------|
(Repeat for the other verses)
Tap to rate this tab
# A B C D E F G H I J K L M N O P Q R S T U V W X Y Z