Song name
# A B C D E F G H I J K L M N O P Q R S T U V W X Y Z

Lea Salonga - Fallin tab

Tabbed by : Henry
para ulit sa tropa ko...hehehe

Intro:

       D                  A            GM7                 A      (2x)
e|-----------------|----------------|-------2---2---|--3------0-----|
B|----7----10--10--|------5---8-8---|----3----------|---------------|
G|----7------------|---6------------|--4------------|---------------|
D|----7------------|-7--------------|-5-------------|------2--------|
A|-----------------|----------------|---------------|---------------|
E|-----------------|----------------|---------------|---------------|

       G             A7            F#m
|--------------|-------------|-------2------|
|--------3-----|-------------|----2---------|
|-----4--------|------6------|--2-----------|
|--5-----------|----5--------|--------------|
|--------------|----------7--|--5-----------|
|--------------|-------------|--------------|
     tap nyo lang 
      G              A7           F#m
|-------------|-------------|----------2----|
|-------3-----|-------------|-------2-------|
|-----4-------|--------6----|----2----------|
|--5----------|-----5-------|---------------|
|-------------|---------7---|----5----------|
|-------------|-------------|---------------|

     G               D
|---------3-----|----------------|
|----3-------3--|-----7-----10---|
|-------4-------|--------7-------|
|---5-----------|-----7----------|
|---------------|----------------|
|---------------|----------------|

       Em              F#m           G              A   
|-----7--------|-------2------|--------------|---------5----|
|--------8-----|-----2--------|---------3----|---5--5-------|
|-----7--------|---2----------|----4---------|-----6--------|
|--------9-----|-----4--------|--5----5------|-7------------|
|-----7--------|--------------|--------------|--------------|
|--------------|--------------|--------------|--------------|

verse 2
      G             A7             F#m
|-------------|-------------|--------2------|
|-------3-----|-------------|-----2---------|
|----4--------|-------6-----|--2------------|
|--5----------|----5--------|---------------|
|-------------|----------7--|--5------------|
|-------------|-------------|---------------|

        G             A7             F#m
|-------------|-------------|--------2------|
|-------3-----|-------------|-----2---------|
|----4--------|-------6-----|--2------------|
|--5----------|----5--------|---------------|
|-------------|----------7--|--5------------|
|-------------|-------------|---------------|

 G               D
|---------3-----|----------------|
|----3-------3--|-----7-----10---|
|-------4-------|--------7-------|
|---5-----------|-----7----------|
|---------------|----------------|
|---------------|----------------|
 
  Em              F#m           G              A   
|-----7--------|-------2------|--------------|---------5----|
|--------8-----|-----2--------|---------3----|---5--5-------|
|-----7--------|---2----------|----4---------|-----6--------|
|--------9-----|-----4--------|--5----5------|-7------------|
|-----7--------|--------------|--------------|--------------|
|--------------|--------------|--------------|--------------|

Chorus:
      
|-----------------7------------|----7-----------|---7-------------|
|--7---8---10-------8-------11-|------8-----11--|-----8-----11----|
|-----------------7---10-------|----7---10------|---7---10--------|
|------------------------------|----------------|-----------------|
|-------------------------10---|-----------10---|-----------10----|
|------------------------------|----------------|-----------------|


|---------7-----------7-|---7-------------7-------|--7--------------7----| 
|-----11-------7--------|---7----------------8----|--7--------------8----|  
|-----11--7------7--7---|---7------------------9--|--7----------------9--|  
|-----11-------9--------|-------9--------------9--|------9------------9--|  
|-10--------------------|-------7--------7--------|------9----------7----|  
|---------7-------------|---7---------------------|--7-------------------|  

          repeat intro chords
|--------5-------------|-------------------------|  
|--------5-------------|-------------7-----------|  
|------------6---------|-------------7-----------| 
|---------------7------|-------------7-----------|  
|---------------7------|-------------------------| 
|--------5-------------|-------------------------|

       outro:
|----7------------7-----|----7------------7-------|--7------------7-----|   
|----7--------------8---|----7----------------8---|--7--------------8---|  
|----7--------------9---|----7----------------9---|--7--------------9---|  
|--------9----------9---|---------9-----------9---|------9----------9---|  
|--------9--------7-----|---------9-------7-------|-----9--------7------|  
|----7------------------|----7--------------------|--7------------------|

             repeat intro chords
|------5---------------|-------------------|-------------10----|
|------5----6----------|----------7--------|---------7---------|
|--------------7-------|----------7--------|------7------------|
|--------------7-------|----------7--------|----7--------------|
|----------------------|-------------------|-------------------|
|------5---------------|-------------------|-------------------|



Tap to rate this tab
 
# A B C D E F G H I J K L M N O P Q R S T U V W X Y Z