Song name
# A B C D E F G H I J K L M N O P Q R S T U V W X Y Z

Leaders - What Do You Want tab

Help us improve GuitareTab! Take a short survey!
E-----------|------------|------------|---------|-------------
B-----------|------------|------------|---------|-------------
G----7---7--|----7---7---|----4---4---|---------|-------------
D--5---5--5-|-\4---4---4-|--2---2---2-|-------5-|--------7----
A-----------|------------|------------|-3--3----|--5--5-------
E-----------|------------|------------|---------|-------------


E----------------|----------------|----------------|-------|------
B----------------|----------------|----------------|-------|------
G--7-7-7-7-7-7-7-|--7-7-7-7-7-7-7-|--4-4-4-4-4-4-4-|------5|----7-
D--5-5-5-5-5-5-5-|-\4-4-4-4-4-4-4-|--2-2-2-2-2-2-2-|-3--3--|5-5---   x.3 
A----------------|----------------|----------------|-------|------
E----------------|----------------|----------------|-------|------
Related for What Do You Want tab