Song name
# A B C D E F G H I J K L M N O P Q R S T U V W X Y Z

Led Zeppelin - Dyer Maker tab

this song is really easy to play
i think i got all of it right 
im gonna put the rythem and lead

/slide
~vibrato


lead
e|--------8---10/12------5----7/8-------1---3/5------3---5/7--------|
B|------8---8----------5---5----------1---1--------3---3------------|
G|--------------------------------------------------------------x6--|
D|------------------------------------------------------------------|
A|------------------------------------------------------------------|
E|------------------------------------------------------------------|

e|---5~-|
B|------|
G|------|
D|------|
A|------|
E|------|

lead
e|--------8---10/12------5----7/8-------1---3/5------3---5/7--------|
B|------8---8----------5---5----------1---1--------3---3------------|
G|--------------------------------------------------------------x3--|
D|------------------------------------------------------------------|
A|------------------------------------------------------------------|
E|------------------------------------------------------------------|

e|---5~-|
B|------|
G|------|
D|------|
A|------|
E|------|

lead
e|--------8---10/12------5----7/8-------1---3/5------3---5/7--------|
B|------8---8----------5---5----------1---1--------3---3------------|
G|--------------------------------------------------------------x3--|
D|------------------------------------------------------------------|
A|------------------------------------------------------------------|
E|------------------------------------------------------------------|

e|---5~-|
B|------|
G|------|
D|------|
A|------|
E|------|

rythem
    C       Am     F      G
e|--8-------5------1------3------|
B|--8-------5------1------3------|
G|--9-------5------2------4------|
D|--10--x5--7--x5--3--x5--5--x5--|  x6
A|--10------7------3------5------|
E|--8-------5------1------3------|
     Am
e|---5----|
B|---5----|
G|---5----|
D|---7----|
A|---7----|
E|---5----|

rythem
    C       Am     F      G
e|--8-------5------1------3------|
B|--8-------5------1------3------|
G|--9-------5------2------4------|
D|--10--x5--7--x5--3--x5--5--x5--|  x3
A|--10------7------3------5------|
E|--8-------5------1------3------|

  Am
e|---5----|
B|---5----|
G|---5----|
D|---7----|
A|---7----|
E|---5----|

Chorus
     Am     G                 F                 G
e|---5------3------|      |---1-----------------3--------------|
B|---5------3------|      |---1-1--1--1--1--1---3-3--3--3--3---|
G|---5------4------|      |---2--2--2--2--2--2--4--4--4--4--4--|
D|---7--x8--5--x---|  x3  |---3---3--3--3--3----5---5--5--5----|
A|---7------5------|      |---3-----------------5--------------|
E|---5------3------|      |---1-----------------3--------------|

lead
e|--------8---10/12------5----7/8-------1---3/5------3---5/7--------|
B|------8---8----------5---5----------1---1--------3---3------------|
G|--------------------------------------------------------------x3--|
D|------------------------------------------------------------------|
A|------------------------------------------------------------------|
E|------------------------------------------------------------------|

e|---5~-|
B|------|
G|------|
D|------|
A|------|
E|------|

lead
e|--------8---10/12------5----7/8-------1---3/5------3---5/7--------|
B|------8---8----------5---5----------1---1--------3---3------------|
G|--------------------------------------------------------------x3--|
D|------------------------------------------------------------------|
A|------------------------------------------------------------------|
E|------------------------------------------------------------------|

e|---5~-|
B|------|
G|------|
D|------|
A|------|
E|------|

rythem
    C       Am     F      G
e|--8-------5------1------3------|
B|--8-------5------1------3------|
G|--9-------5------2------4------|
D|--10--x5--7--x5--3--x5--5--x5--|  x3
A|--10------7------3------5------|
E|--8-------5------1------3------|

  Am
e|---5----|
B|---5----|
G|---5----|
D|---7----|
A|---7----|
E|---5----|

rythem
    C       Am     F      G
e|--8-------5------1------3------|
B|--8-------5------1------3------|
G|--9-------5------2------4------|
D|--10--x5--7--x5--3--x5--5--x5--|  x3
A|--10------7------3------5------|
E|--8-------5------1------3------|

  Am
e|---5----|
B|---5----|
G|---5----|
D|---7----|
A|---7----|
E|---5----|

Chorus
     Am     G                 F                 G
e|---5------3------|      |---1-----------------3--------------|
B|---5------3------|      |---1-1--1--1--1--1---3-3--3--3--3---|
G|---5------4------|      |---2--2--2--2--2--2--4--4--4--4--4--|
D|---7--x8--5--x---|  x3  |---3---3--3--3--3----5---5--5--5----|
A|---7------5------|      |---3-----------------5--------------|
E|---5------3------|      |---1-----------------3--------------|

solo

e|--------------------------------10b-10-8-10-8-------------------------
B|---------6b-5-------10b-8-10-8----------------8b----------------------
G|---5-7b-------7---9------------------------------7b9p7p5----5---7b8---
D|---------------7------------------------------------------7-----------
A|----------------------------------------------------------------------
E|----------------------------------------------------------------------

e|-----------------------10b--|
B|--------------8-10b-8-------|
G|---7-7-7--5-----------------|
D|----------------------------|
A|----------------------------|
E|----------------------------|


lead
e|--------8---10/12------5----7/8-------1---3/5------3---5/7--------|
B|------8---8----------5---5----------1---1--------3---3------------|
G|------------------------------------------------------------------| 
D|------------------------------------------------------------------|
A|------------------------------------------------------------------|
E|------------------------------------------------------------------|
play this till the song ends


enjoy the tab









Tap to rate this tab
# A B C D E F G H I J K L M N O P Q R S T U V W X Y Z