Guitaretab - guitar tabs
Song name
# A B C D E F G H I J K L M N O P Q R S T U V W X Y Z

Led Zeppelin - Heartbreaker tab

Heartbreaker-
Led Zeppelin

A5 : [x022xx]
D  : [x5777x]
A  : [x7765x]
E  : [x7999x]

[Riff 1]
e:-------|-----------------------|-----------------------------------|
B:-------|-----------------------|-----------------------------------|
G:-------|-----------------------|-----------------------------------|
D:-------|-----------0--1-2------|---------------0--1-2--------------|
A:-------|---0--3~---------------|---0-0-0-0-3~----------------------|
E:--3b---|------------------3b---|-----------------------3b----------|

[Riff 2]
e:--------------------|----------------------------------------------|
B:--------------------|----------------------------------------------|
G:--------------------|----------------------------------------------|
D:--------2--3-4------|-------------2--3-4---------------------------|
A:--2--5--------------|--2-2-2-2-5-----------------------------------|
E:----------------5b--|---------------------5b-----------------------|

[Riff 3]
e:------------------------|------------------------------------------|
B:------------------------|------------------------------------------|
G:------------------------|------------------------------------------|
D:------------3--4-5------|---------------3--4-5---------------------|
A:--3~---6~---------------|---3-3-3-3-6~-----------------------------|
E:--------------------6b--|-----------------------6b-----------------|

[Riff 4]
e:-----------------------|-------------------------------------------|
B:-----------------------|-------------------------------------------|
G:-----------------------|-------------------------------------------|
D:-----------5--6-7------|---------------5--6-7----------------------|
A:--5~---8~--------------|---5-5-5-5-8~------------------------------|
E:------------------8b---|----------------------8b-------------------|

[Riff 5]
e:---------------------------|---------------------------------------|
B:---------------------------|---------------------------------------|
G:---------------------------|---------------------------------------|
D:------------7--8-9---------|-------------------7--8-9--------------|
A:--7~--10~------------------|----7-7-7-7--10~-----------------------|
E:--------------------10b----|---------------------------10b---------|

[Fill 1]
e:-------------------------------------------------------------------|
B:-------------------------------------------------------------------|
G:------7---7---7---7-7-7--9-9-9-------------------------------------|
D:--7s9---9---9---9--------------------------------------------------|
A:-------------------------------------------------------------------|
E:-------------------------------------------------------------------|

Progression:

[Riff 1] x2
[Riff 2] x1
[Riff 1] x1

 A5				     D		    A
Hey fellas have you heard the ...
					D	  A
It won't take long until someone can ...
					D	A
Her style is new but the face's ....
				      D        A
But from her eyes a different smile like that of one who knows.....
	D  A  D  A  D  A

[Riff 1] x2
[Riff 2] x1
[Riff 1] x1

       A5			       D	  A
Well it's been ten years and maybe ....
				  D	   A
The best years of my life gone....
				D	A
Some people cry and some people ...
				     D	       A
But I'll just keep on rollin'....

	D  A  D  A  D  A

With [Riff 3] x2:

People talkin' all around 'bout ...
, I know where ...

With [Riff 4] x1:

One thing I do have on my mind, ...

With [Riff 5] x1:

It's the way you call me another ...

[Fill 1] x2

Wallop an E chord, then break into the solo:

e:--------------------|--------------------|-------------------------|
B:--------------------|--------------------|-------------------------|
G:--2~~~h5p2p0--------|--2~~~h5p2p0--------|-------------------------|
D:--------------2p0---|-------------2p0----|-------------------------|
A:------------------3-|-----------------3--|-------------------------|
E:--------------------|--------------------|-------------------------|
[ Tab from: http://www.guitaretab.com/l/led-zeppelin/10213.html ]
e:-------------------------------------------------------------------|
B:-------------------------------------------------------------------|
G:-2~~h5p2p0h5p2p0h5p2p0h5p2p0h5p2p0h5p2p0-h5b8r7p2p0-h5b8r7p2p0-----|
D:-------------------------------------------------------------------|
A:-------------------------------------------------------------------|
E:-------------------------------------------------------------------|
					     *		*

e:-------------------------------------------------------------------|
B:-------------------------------------------------------------------|
G:-h5b8r7p2p0-h5b8r7p2p0-h5b8r7p2p0-h5b8r7p2p0---5b9r5b9r5b9r5b9r5---|
D:-------------------------------------------------------------------|
A:-------------------------------------------------------------------|
E:-------------------------------------------------------------------|
     *		*	   *	      * 	  *   *   *   *

e:----------------|-----------------------|--------------------------|
B:----------------|-----------------------|--------------------------|
G:----5-7b9-7b9---|-----5--7b9-7b9r7-5----|----5-7b9r7b9r7b9r7b9~----|
D:--7-------------|--7-----------------7--|--7-----------------------|
A:----------------|-----------------------|--------------------------|
E:----------------|-----------------------|--------------------------|

e:-------------------------------------------------------------------|
B:------------------------------------------5-5--8p5-5---5-5--8p5----|
G:-7b9r7-5-----7b9r7-5-----7b9r7-5----5-7b-------------7----------7b9|
D:---------7-----------7-----------7---------------------------------|
A:-------------------------------------------------------------------|
E:-------------------------------------------------------------------|

e:-------------------------------------8p5-7---------8p5-7-----5h8p5-|
B:--5-8p5--5-5-5-5-8p5-------5--8p5-5--------5h7--5--------5h7-------|
G:---------------------7--7b-----------------------------------------|
D:-------------------------------------------------------------------|
A:-------------------------------------------------------------------|
E:-------------------------------------------------------------------|

e:------8p5-7p5--5------5---8--11--11p8---10p8-8---------------------|
B:-7-5-------------/10----------------------------8h10---------------|
G:-----------------------------------------------------8-9-8-8-9--6-7|
D:-------------------------------------------------------------------|
A:-------------------------------------------------------------------|
E:-------------------------------------------------------------------|

e:-------------------------------------------------------------------|
B:-------------------------------------------------------------------|
G:--7---4-5-4--------------4-5p4-------------------------------------|
D:------------6-5------4-5--------7----7-7--4h5p4---4h5p4------------|
A:----------------0-7---------------0-------------7-------7-0-0-4-3--|
E:-------------------------------------------------------------------|

e:-----------|------------------------5------------------------------|
B:-----------|---------------------5-----8p5-------------------------|
G:-----------|-------------2--4s6--------------7b9--8p7-5--7p5-------|
D:-----------|---------2-4-------------------------------------7p5---|
A:--5-3-4----|-0--2-4----------------------------------------------7-|
E:--------3~-|-------------------------------------------------------|

e:----------------------------------5--------------------------------|
B:--------------------------------5---8p5-8p5------------------------|
G:---------5--7--5h7p5---5-7--7b9-------------7-8-8b---5-5h7--5----5-|
D:--5h6h7--------------7----------------------------------------7----|
A:-------------------------------------------------------------------|
E:-------------------------------------------------------------------|

e:--------------5--5-------------------------------------------------|
B:------------5-------8~~-----------9-------7-------5-----4-----3~~\-|
G:--5--5h6--6--------------------------------------------------------|
D:---------------------------0---9------7-------6------5-----4~~~~~\-|
A:-------------------------------------------------------------------|
E:-------------------------------------------------------------------|

m.d.***
Related for Heartbreaker tab
Heartbreaker chords by Led Zeppelin