Song name
# A B C D E F G H I J K L M N O P Q R S T U V W X Y Z

Led Zeppelin - Moby Dick tab

Song: Moby Dick
Atrist: Led Zeppelin


Hey! the other tabs on this site.....way off!! (total offense to the writers)

Your gonna wanna throw some distortion on.


feel free to throw some pull offs, slides, hammer on's, or whatever in this song.


e]------------------------------------------------]
B]------------------------------------------------]
G]------------------------------------------------]
D]------12---12--10-------------------------------]
A]------------------12-------8---10-8---10-8------]
E]--10--------------------------------------------]


e]------------------------------------------------]
B]------------------------------------------------]
G]------------------------------------------------]
D]------12---12--10-------------------------------]
A]------------------12-------8---10-8---10-8------]
E]--10--------------------------------------------]


e]------------------------------------------------]
B]------------------------------------------------]
G]------------------------------------------------]
D]------12---12--10-------------------------------]
A]------------------12-------8---10-8---10-8------]
E]--10--------------------------------------------]


e]------------------------------------------------]
B]------------------------------------------------]
G]------------------------------------------------]
D]------12---12--10-------------------------------]
A]------------------12-------8---10-8---10-8------]
E]--10--------------------------------------------]

      (note your moving up a string here)
e]--------------------------------------------]
B]--------------------------------------------]
G]------12---12--10---------------------------]
D]------------------12-------8---10-8---10-8--]
A]--10----------------------------------------]
E]--------------------------------------------]


e]--------------------------------------------]
B]--------------------------------------------]
G]------12---12--10---------------------------]
D]------------------12-------8---10-8---10-8--]
A]--10----------------------------------------]
E]--------------------------------------------]

            (moving back down)
e]------------------------------------------------]
B]------------------------------------------------]
G]------------------------------------------------]
D]------12---12--10-------------------------------]
A]------------------12-------8---10-8---10-8------]
E]--10--------------------------------------------]


e]------------------------------------------------]
B]------------------------------------------------]
G]------------------------------------------------]
D]------12---12--10-------------------------------]
A]------------------12-------8---10-8---10-8------]
E]--10--------------------------------------------]



e]----------------------------------------------------------------------]
B]----------------------------------------------------------------------]
G]------12---12-10--------12--12-------10---12----14-14-14-14-14-14--12-]
D]-----------------12-------------12------------------------------------]
A]--10------------------------------------------------------------------]
E]----------------------------------------------------------------------]


e]---------------------------]
B]--14b16--------------------]
G]-----------12p10-----------]
D]------------------12-10----]
A]---------------------------]
E]---------------------------]


e]------------------------------------------------]
B]------------------------------------------------]
G]------------------------------------------------]
D]------12---12--10-------------------------------]
A]------------------12-------8---10-8---10-8------]
E]--10--------------------------------------------]


e]------------------------------------------------]
B]------------------------------------------------]
G]------------------------------------------------]
D]------12---12--10-------------------------------]
A]------------------12-------8---10-8---10-8------]
E]--10--------------------------------------------]


e]------------------------------------------------]
B]------------------------------------------------]
G]------------------------------------------------]
D]------12---12--10-------------------------------]
A]------------------12-------8---10-8---10-8------]
E]--10--------------------------------------------]

e|-----------10----------------------------------------------------] 
B|--------10------------------------------------------12--10\------] 
G|-12b14---------12b14r12-10----12-10-----------------12--10\------] 
D|---------------------------12--------12~--12-10-12---------------]
A|-----------------------------------------------------------------] 
E|-----------------------------------------------------------------]


e]------------------------------------------------]
B]------------------------------------------------]
G]------------------------------------------------]
D]------12---12--10-------------------------------]
A]------------------12-------8---10-8---10-8------]
E]--10--------------------------------------------]


e|----------------------------------------------------------13b15----] 
B|--------13b15~13b15~13b15~13b15~13b15~13b15~13b15------------------]
G|-------------------------------------------------------------------] 
D|-------------------------------------------------------------------] 
A|-------------------------------------------------------------------] 
E|-------------------------------------------------------------------] 
                                
e|-10----13b15----10-------------------------------------------------] 
B|--10-------------10------------------------------------------------] 
G|---12-------------12-----------------------------------------------] 
D|-------------------------------------------------------------------] 
A|-------------------------------------------------------------------] 
E|-------------------------------------------------------------------]


e]------------------------------------------------]
B]------------------------------------------------]
G]------------------------------------------------]
D]------12---12--10-------------------------------]
A]------------------12-------8---10-8---10-8------]
E]--10--------------------------------------------]


e|-----------------------------------10------------------------------] 
B|----------------------------10-12-----13b15--13b15~\---------------]
G|-----------------7-7-7-9s11----------------------------------------]
D|-----------7-9-----------------------------------------------------]
A|-5-5-5-7s9---------------------------------------------------------]
D|-------------------------------------------------------------------]


e]----------------------------------------------------------------------]
B]----------------------------------------------------------------------]
G]------12---12-10--------12--12-------10---12----14-14-14-14-14-14--12-]
D]-----------------12-------------12------------------------------------]
A]--10------------------------------------------------------------------]
E]----------------------------------------------------------------------]


e]---------------------------]
B]--14b16--------------------]
G]-----------12p10-----------]
D]------------------12-10----]
A]---------------------------]
E]---------------------------]




           THE MOST AWESOME DRUM SOLO BY THE MOST AWESOME DRUMMER (john Bonham a.k.a. Bonzo)



e]------------------------------------------------]
B]------------------------------------------------]
G]------------------------------------------------]
D]------12---12--10-------------------------------]
A]------------------12-------8---10-8---10-8-10---]
E]--10--------------------------------------------]


e]----------------------------------------------]
B]----------------------------------------------]
G]------12---12--10-----------------------------]
D]------------------12-------8---10-8---10-8-10-]
A]--10------------------------------------------]
E]----------------------------------------------]


e]----------------------------------------------------------------------]
B]----------------------------------------------------------------------]
G]------12---12-10--------12--12-------10---12----14-14-14-14-14-14--12-]
D]-----------------12-------------12------------------------------------]
A]--10------------------------------------------------------------------]
E]----------------------------------------------------------------------]


e]---------------------------]
B]--14b16--------------------]
G]-----------12p10-----------]
D]------------------12-10----]
A]---------------------------]
E]---------------------------]

hold each power chord for about 4 seconds each
e]-------------------------------------------]
B]-------------------------------------------]
G]-------------------------------------------]
D]--12-------------10------------7-----------]
A]--12-------------10------------7-----------]
E]--10-------------8-------------5-----------]



               mini (but still awesome) drum solo



                  hold note for a while.
e]-------------------------------------------------------------]
B]-------------------------------------------------------------]
G]---2---------------------------------------------------------]
D]---2---------------------------------------------------------]
A]---0---------------------------------------------------------]
E]-------------------------------------------------------------]




well that's moby dick. hope you learn it
Tap to rate this tab
# A B C D E F G H I J K L M N O P Q R S T U V W X Y Z