Guitaretab - guitar tabs
Song name
# A B C D E F G H I J K L M N O P Q R S T U V W X Y Z

Led Zeppelin - The Rain Song tab

The Rain Song - Led Zeppelin
Tabbed by: Chris Reyes
E-mail: Rictask8er@sbcglobal.net

Tuning: EADGBe

Legend:

b - bend
v - Strum up
^ - Strum down
()- Play note and let it ring
\ - Slide down
/ - Slide up
h - Hammer-on
p - Pull-off
x - Mute note

Note: Listen to the track for the backing strum patterns.
============================================================================

   v    ^ v ^ v ^    v    ^ v ^ v ^       ^ ^ ^ ^ ^  ^ v ^
|--3----3-3-3-3-3----2----2-2-2-2-2--------------------------------|
|--3----3-3-3-3-3----3----3-3-3-2-2-------6-6-4-3-4--4-4-4---------|
|--0----0-0-0-0-0----0----0-0-0-0-0-------4-4-4-3-3--3-3-3---------|
|--0----0-0-0-0-0----0----0-0-0-0-0-------3-3-3-3-5--5-5-5---------|
|--x----x-x-x-x-x----x----x-x-x-x-x--------------------------------|
|--3----3-3-3-3-3----3----3-3-3-3-3---(3)---------------------3-3--|


 ^  ^ ^  ^ v ^    ^   ^   ^   ^   ^     ^   v     ^   v   ^
----------------------------------------------------------------|
------------------12--10--13--12--5/10--10--10----10--10--10----|
-2--4-4--4-4-4----0---0---0---0---0/0---0---0-----0---0---0-----|
-0--0-0--0-0-0----11--9---14--13--4/9---9---9-----9---9---9-----|
------------------12--10--15--14--5/10--10--10----10--10--10----|
----------------------------------------------------------------|


  ^   ^   ^   ^   ^     ^   v     ^     ^    ^  ^ v ^    ^  ^ v ^  ^ v
----------------------------------------6\5--5--5-5-5----5--5-5-5--5-5--|
--12--10--13--12--5/10--10--10----10----7\6--6--6-6-6----6--6-6-6--6-6--|
--0---0---0---0---0/0---0---0-----0-----6\5--5--5-5-5----7--7-7-7--7-7--|
--11--9---14--13--4/9---9---9-----9----(0)---------------8--8-8-8--8-8--|
--12--10--15--14--5/10--10--10----10------------------------------------|
------------------------------------------------------------------------|


 ^ ^ ^  ^ v    ^ ^           ^    ^  ^ v ^    ^  ^ v ^  ^ v    ^ ^ ^  ^ v
-3-3-3--3-3----3(3)----------6\5--5--5-5-5----5--5-5-5--5-5----3-3-3--3-3-|
-3-3-3--3-3----3(3)----------7\6--6--6-6-6----6--6-6-6--6-6----3-3-3--3-3-|
-0-0-0--0-0----0(0)----------6\5--5--5-5-5----7--7-7-7--7-7----0-0-0--0-0-|
-3-2-2--2-2----3-2---2-3----(0)---------------8--8-8-8--8-8----3-2-2--2-2-|
-----3--3-3--------3-----------------------------------------------3--3-3-|
--------------------------------------------------------------------------|


 ^ ^          ^    ^  ^ v ^    ^  ^ v ^  ^ v    ^ ^ ^  ^ v    ^ ^
-3(3)---------6\5--5--5-5-5----5--5-5-5--5-5----3-3-3--3-3----3(3)--------|
-3(3)---------7\6--6--6-6-6----6--6-6-6--6-6----3-3-3--3-3----3(3)--------|
-0(0)---------6\5--5--5-5-5----7--7-7-7--7-7----0-0-0--0-0----0(0)--------|
-3-2---2-3---(0)---------------8--8-8-8--8-8----3-2-2--2-2----3-2---2-3/5-|
-----3----------------------------------------------3--3-3--------3-------|
--------------------------------------------------------------------------|


--------------------------------------------------------------------------|
--------------------------------------------------------------------------|
-2-4-4--2-4---2---------2-4-4--2-4---2---------2--4-4--2-4---2---------2--|
(0)---------5---2-5-0--(1)---------5---2-5-0--(2)----------5---2-5-0--(3)-|
--------------------------------------------------------------------------|
--------------------------------------------------------------------------|


            ^ ^  ^                                 ^
------0--------------------3-------(2)----2---2----0-0--------------0-0-|
--------4--------------------5---5------3---3---3--3---3h5p3p0------3---|
-4-4--3---3-0-0--0-----4-------4-------------------0-----------0----0---|
------------2-0--0---5---4-------------------------2-------------2--2---|
------------3-2--2-3-------------------------------3----------------3---|
------------------------------------------------------------------------|


              ^ ^ ^  ^ v ^
---------------------------|
-3h5p3p0-------------------|
---------0----2-4-4--4-4-4-|
-----------2--0-0-0--0-0-0-|
---------------------------|
---------------------------|

   v    ^ v ^ v ^    v    ^ v ^ v ^       ^ ^ ^ ^ ^  ^ v ^
|--3----3-3-3-3-3----2----2-2-2-2-2--------------------------------|
|--3----3-3-3-3-3----3----3-3-3-2-2-------6-6-4-3-4--4-4-4---------|
|--0----0-0-0-0-0----0----0-0-0-0-0-------4-4-4-3-3--3-3-3---------|
|--0----0-0-0-0-0----0----0-0-0-0-0-------3-3-3-3-5--5-5-5---------|
|--x----x-x-x-x-x----x----x-x-x-x-x--------------------------------|
|--3----3-3-3-3-3----3----3-3-3-3-3---(3)---------------------3-3--|


 ^  ^ ^  ^ v ^    ^   ^   ^   ^   ^     ^   v     ^   v   ^
----------------------------------------------------------------|
------------------12--10--13--12--5/10--10--10----10--10--10----|
-2--4-4--4-4-4----0---0---0---0---0/0---0---0-----0---0---0-----|
-0--0-0--0-0-0----11--9---14--13--4/9---9---9-----9---9---9-----|
------------------12--10--15--14--5/10--10--10----10--10--10----|
----------------------------------------------------------------|


  ^   ^   ^   ^   ^     ^   v     ^     ^    ^  ^ v ^  ^  ^ v
----------------------------------------6/5--5--5-5-5--5--5-5----5-8p5\-|
--12--10--13--12--5/10--10--10----10----7/6--6--6-6-6--6--6-6--6--------|
--0---0---0---0---0/0---0---0-----0-----6/5--5--5-5-5--7--7-7-----------|
--11--9---14--13--4/9---9---9-----9----(0)-------------8--8-8-----------|
--12--10--15--14--5/10--10--10----10------------------------------------|
------------------------------------------------------------------------|


 ^ ^ ^  ^ v    ^ ^ ^  ^ v ^   ^    ^ v           ^  ^ v              ^ ^ ^
-3-3-3--3-3----3-3-3--3-3-3---6\5--5-5----5-8-5--5--5-5----5-8-5\----3-3-3--|
-3-3-3--3-3----3-3-3--3-3-3---7\6--6-6--6--------6--6-6--6-----------3-3-3--|
-0-0-0--0-0----0-0-0--0-0-0---6\5--5-5-----------7--7-7--------------0-0-0--|
-3-2-2--2-2----3-2-2--2-2-2--(0)-----------------8--8-8--------------3-2-2--|
-----3--3-3--------3--3-3-3----------------------------------------------3--|
----------------------------------------------------------------------------|


 ^ v    ^ ^ ^  ^ V ^  ^    ^          ^  ^ v             ^ ^ ^  ^ v  ^ ^ ^
-3-3----3-3-3--3-3-3--6\5--5---5-8-5--5--5-5----5-8-5----3-3-3--3-3--3-3-3--|
-3-3----3-3-3--3-3-3--7\6--6-6--------6--6-6--6----------3-3-3--3-3--3-3-3--|
-0-0----0-0-0--0-0-0--6\5--5----------7--7-7-------------0-0-0--0-0--0-0-0--|
-2-2----3-2-2--2-2-2-(0)--------------8--8-8-------------3-2-2--2-2--3-2-2--|
-3-3--------3--3-3-3-----------------------------------------3--3-3------3--|
----------------------------------------------------------------------------|


 ^ v ^
-3-3-3----------------------------------------------------------------------|
-3-3-3---2-4-4--2-4---2---------2-4-4--2-4---2---------2-4-4--2-4---2-------|
-0-0-0--(0)---------5---2-5-0--(1)---------5---2-5-0--(2)---------5---2-5-0-|
-2-2-2----------------------------------------------------------------------|
-3-3-3----------------------------------------------------------------------|
----------------------------------------------------------------------------|


                ^ v ^
---------0-----------------3-----2h3p2p0--(0)---2---2---0-2------3---------|
-----------3-----------------5-----------3----3---3---3------------5-------|
--2-4-4------4--0-0-0----4-----4-------------------------------4-----4-----|
-(3)-----3------2-2-2------------------------------------------------------|
----------------3-3-3--3-------------------------------------3-------------|
---------------------------------------------------------------------------|


                                                                    ^
-2h3p2p0--(2)-0-------------------------------3----------2---2------0--0----|
---------3------3-0---0---0----0-3-----0----5---5---5--3---3---3----3-------|
--------------------2---2----2------2-----2-------4-----------------0-------|
--------------------------------------------------------------------2-------|
--------------------------------------------------------------------3-------|
----------------------------------------------------------------------------|


              ^                 ^  ^ ^  ^ v ^
--------------0--0-------------------------------|
-3h5p3p0------3----3h5p3p0-----------------------|
---------0----0------------0----2--4-4--4-4-4----|
-----------2--2--------------2--0--0-0--0-0-0----|
--------------3----------------------------------|
-------------------------------------------------|

[ Tab from: http://www.guitaretab.com/l/led-zeppelin/10259.html ]
   v    ^ v ^ v ^    v    ^ v ^ v ^       ^ ^ ^ ^ ^  ^ v ^
|--3----3-3-3-3-3----2----2-2-2-2-2--------------------------------|
|--3----3-3-3-3-3----3----3-3-3-2-2-------6-6-4-3-4--4-4-4---------|
|--0----0-0-0-0-0----0----0-0-0-0-0-------4-4-4-3-3--3-3-3---------|
|--0----0-0-0-0-0----0----0-0-0-0-0-------3-3-3-3-5--5-5-5---------|
|--x----x-x-x-x-x----x----x-x-x-x-x--------------------------------|
|--3----3-3-3-3-3----3----3-3-3-3-3---(3)---------------------3-3--|


 ^  ^ ^  ^ v ^    ^   ^   ^   ^   ^     ^   v     ^   v   ^
----------------------------------------------------------------|
------------------12--10--13--12--5/10--10--10----10--10--10----|
-2--4-4--4-4-4----0---0---0---0---0/0---0---0-----0---0---0-----|
-0--0-0--0-0-0----11--9---14--13--4/9---9---9-----9---9---9-----|
------------------12--10--15--14--5/10--10--10----10--10--10----|
----------------------------------------------------------------|


  ^   ^   ^   ^   ^     ^   v     ^     ^    ^  ^ v ^    ^  ^ v ^  ^ v
----------------------------------------6\5--5--5-5-5----5--5-5-5--5-5--|
--12--10--13--12--5/10--10--10----10----7\6--6--6-6-6----6--6-6-6--6-6--|
--0---0---0---0---0/0---0---0-----0-----6\5--5--5-5-5----7--7-7-7--7-7--|
--11--9---14--13--4/9---9---9-----9----(0)---------------8--8-8-8--8-8--|
--12--10--15--14--5/10--10--10----10------------------------------------|
------------------------------------------------------------------------|


 ^ ^ ^  ^ v    ^ ^           ^    ^  ^ v ^    ^  ^ v ^  ^ v    ^ ^ ^  ^ v
-3-3-3--3-3----3(3)----------6\5--5--5-5-5----5--5-5-5--5-5----3-3-3--3-3-|
-3-3-3--3-3----3(3)----------7\6--6--6-6-6----6--6-6-6--6-6----3-3-3--3-3-|
-0-0-0--0-0----0(0)----------6\5--5--5-5-5----7--7-7-7--7-7----0-0-0--0-0-|
-3-2-2--2-2----3-2---2-3----(0)---------------8--8-8-8--8-8----3-2-2--2-2-|
-----3--3-3--------3-----------------------------------------------3--3-3-|
--------------------------------------------------------------------------|


 ^ ^          ^    ^  ^ v ^    ^  ^ v ^  ^ v    ^ ^ ^  ^ v    ^ ^
-3(3)---------6\5--5--5-5-5----5--5-5-5--5-5----3-3-3--3-3----3(3)--------|
-3(3)---------7\6--6--6-6-6----6--6-6-6--6-6----3-3-3--3-3----3(3)--------|
-0(0)---------6\5--5--5-5-5----7--7-7-7--7-7----0-0-0--0-0----0(0)--------|
-3-2---2-3---(0)---------------8--8-8-8--8-8----3-2-2--2-2----3-2---2-3---|
-----3----------------------------------------------3--3-3--------3-------|
--------------------------------------------------------------------------|


 ^ ^ ^  ^ v    ^ ^
-3-3-3--3-3----3(3)---------------------------------------------------------|
-3-3-3--3-3----3(3)---------------------------------------------------------|
-0-0-0--0-0----0(0)----------2-4-4--2-4---2---------2-4-4--2-4---2----------|
-3-2-2--2-2----3-2---2-3/5--(0)---------5---2-5-0--(1)---------5---2-5-0----|
-----3--3-3--------3--------------------------------------------------------|
----------------------------------------------------------------------------|

--------------------------------0------------3------2h3p2p0---(2)---2---2---|
----------------------------------3--------5---5-------------3----3---3---3-|
--2-4-4--2-4---2---------2-4-4------4------------4--------------------------|
-(2)---------5---2-5-0--(3)-----3--------5----------------------------------|
---------------------------------------3------------------------------------|
----------------------------------------------------------------------------|


 ^                 ^                   ^  ^  ^ v ^  ^  ^  ^ v ^  ^  ^  ^
-0--0--------------0--0--------------|--------------------------------------|
-3----3h5p3p0------3----3h5p3p0------|-----------------1--1-1-1--1----------|
-0------------0----0------------0----|-----------------x--x-x-x--x--5--5----|
-2--------------2--2--------------2--|-5--5--5-5-5--5--3--3-3-3--3--5--5----|
-3-----------------3-----------------|-5--5--5-5-5--5--3--3-3-3--3--3--3----|
-------------------------------------|-3--3--3-3-0--3--1--1-1-1--1----------|


 ^ v ^    ^                              ^  ^  ^ v ^  ^  ^  ^ v ^  ^  ^  ^
----------------------------------------------------------------------------|
---------------------------------------------------------1--1-1-1--1--------|
-5-5-5-------------0----------0--------------------------x--x-x-x--x--5--5--|
-5-5-5----5------0---0------0---0--------5--5--5-5-5--5--3--3-3-3--3--5--5--|
-3-3-0-1b-5----1----------1----------1b--5--5--5-5-5--5--3--3-3-3--3--3--3--|
----------3--3----------3----------3-----3--3--3-3-3--3--1--1-1-1--1--------|


 ^ v ^    ^                              ^  ^  ^ v ^  ^  ^  ^ v ^  ^  ^  ^
----------------------------------------------------------------------------|
---------------------------------------------------------1--1-1-1--1--------|
-5-5-5-------------0----------0--------------------------x--x-x-x--x--5--5--|
-5-5-5----5------0---0------0---0--------5--5--5-5-5--5--3--3-3-3--3--5--5--|
-3-3-0-1b-5----1----------1----------1b--5--5--5-5-5--5--3--3-3-3--3--3--3--|
----------3--3----------3----------3-----3--3--3-3-3--3--1--1-1-1--1--------|


 ^ ^ ^    ^   ^    ^  ^ ^ ^  ^ ^         ^    ^  ^ ^ ^  ^ ^         ^    ^
--------------6\5--5--3-3-3--3(3)--------6\5--5--3-3-3--3(3)--------6\5--5--|
--------------7\6--6--3-3-3--3(3)--------7\6--6--3-3-3--3(3)--------7\6--6--|
-5-5-5--------6\5--7--0-0-0--0(0)--------6\5--7--0-0-0--0(0)--------6\5--7--|
-5-5-5----5--(0)---8--3-2-2--3-2---2-3--(0)---8--3-2-2--3-2---2-3--(0)---8--|
-3-3-0-1b-5---------------3------3-------------------3------3---------------|
----------3-----------------------------------------------------------------|


 ^ ^ ^  ^ ^         ^    ^            ^ ^ ^  ^ ^
-3-3-3--3(3)--------6\5--5----5-8-5\--3-3-3--3(3)---------------------------|
-3-3-3--3(3)--------7\6--6--6---------3-3-3--3(3)---------------------------|
-0-0-0--0(0)--------6\5--7------------0-0-0--0(0)----------2-4-4--2-4---2---|
-3-2-2--3-2---2-3--(0)---8------------3-2-2--3-2---2-3/5--(0)---------5-----|
-----3------3-----------------------------3------3--------------------------|
----------------------------------------------------------------------------|

--------------------------------------------------------------0-------------|
----------------------------------------------------------------3-----------|
---------2-4-4--2-4---2---------2-4-4--2-4---2---------2-4-4------4------4--|
-2-5-0--(1)---------5---2-5-0--(2)---------5---2-5-0--(3)-----3--------5----|
---------------------------------------------------------------------3------|
----------------------------------------------------------------------------|


                       ^                 ^
-3----------2-2--------0--0--------------0--0----------------|
---5---5--5-----3-5-0--3----3h5p3p0------3----3h5p3p0--------|
-----4-----------------0------------0----0------------0------|
-----------------------2--------------2--2--------------2----|
-----------------------3-----------------3-------------------|
-------------------------------------------------------------|

|---------------------------------------------------------------------------|
|-/12--12--12-10-8--10--8-----8--10--8------8------8-7---7----7---7--8--10--|
|-----------------------------------------9---9---9----9----7---7-----------|
|--------------------------12-----------9-------9---------------------------|
|-/14--14--14-12-10-12--10----10-12--10------------------------------10-12--|
|---------------------------------------------------------------------------|

-------------------------------------------------------------0---0---0------|
-------10-----------12-13-------13-----------13/(15)\----------3------------|
----11----11----11-----------14----14----14----------------5-------5--------|
-11----------11-----------14----------14-----------------5------------------|
--------------------14-15---------------------------------------------------|
------------------------------------------------------(3)---------------(3)-|

-----0---0----5p3-2---3--2-----------5-3---0-----0-------0------0-----------|
-------3------------5------5-3---5-------5-----5---5-------3------3-----3-3-|
---5-------5-------------------5-------------4---------4------4-------4-----|
-5---------------------------------------------------5--------------5-------|
----------------------------------------------------------------------------|
----------------------------------------------------------------------------|


           ^
---------------|
-----3-3--(3)--|
---4------(4)--|
-5--------(5)--|
----------(3)--|
---------------|
Related for The Rain Song tab
The Rain Song chords by Led Zeppelin