Song name
# A B C D E F G H I J K L M N O P Q R S T U V W X Y Z

Led Zeppelin - Bron-yr-aur tab

Help us improve GuitareTab! Take a short survey!
This took forever and I'm not even sure its the right tuning but its sounds pretty close
not right on, depending on how stiff your fingers are this song can be really difficult
the timing might take a while to get but its all worth the effort even though its only 
minutes and some its still an awesome song. I've broken it down into riffs hoping that
can put it together themselves.

Riff 1

E|-----|-----------------||----------------|----------------||
C|-----|0-----0----------||----0-----------|----0-----------||
G|-----|--0---------0----||--0-------0-----|--0-------0-----||
C|-----|----0-----0------||--------0-------|--------0-------||
A|---0-|3------------0---||3-------------0-|3-------------0-||
C|-----|--------0--------||------0---------|------0---------||

Riff 2

E|------3-0-------|----------------|------0---------|----------------|
C|2---------2-----|------0---------|5-------------0-|------0---------|
G|--0---------0---|------------0---|--4-------4-----|----------------|
C|----2-----------|--0-------0-----|----0-------0---|--0-------0-----|
A|2-------2-----3-|0---------------|5-------5-------|0---------------|
C|----------------|----0---0-------|----------------|----0---0---0---|

Riff 3

E|--------------0-|----------------|--------------0-|------3-0-------|
C|------0---------|0-----0---------|------0---------|2---------2-----|
G|0-----------0---|----0-------0---|0-----------0---|--0---------0---|
C|--0-------0-----|----------0-----|--0-------0-----|----2-----------|
A|----0---0-------|0-3-------------|----0---0-------|2-------2-----3-|
C|0-----------0---|--------0-------|0-----------0---|----------------|

Riff 4

E||----------------|----------------||
C||------0-------2-|------4-------0-||
G||----0-------0---|----4-------0---||
C||--0-------2-----|--4-------4-----||
A||3-------2-------|0-------0-------||
C||----------------|----------------||

Riff 5

E|----------------|----------------|----------------|----------------|
C|------0-------2-|------4-------0-|------4-------5-|------4-------4-|
G|----0-------0---|----4-------0---|----4-------4---|----4-------4---|
C|--0-------2-----|--4-------4-----|--4-------4-----|--4-------4-----|
A|3-------2-------|0-------0-------|0-------0-------|0-------0-------|
C|----------------|----------------|----------------|----------------|

Riff 6

E||------------------|----------------||
C||5-----5-5/7-----0-|------0---------||
G||--5---------7-----|----0-------0---||
C||----5---------7---|----------0-----||
A||------------------|3---------------||
C||5-------5/7-------|--------0-------||

Riff 7

E|----------------|----------------|----------------|
C|------4-------5-|------4-------5-|------4-------4-|
G|----4-------4---|----4-------4---|----4-------4---|
C|--4-------4-----|--4-------4-----|--4-------4-----|
A|0-------0-------|0-------0-------|0-------0-------|
C|----------------|----------------|----------------|

E|--------------0-|
C|------0-----0---|
G|----0-----5-----|
C|--5-----7-------|
A|7---------------|
C|----------------|

E|------0-------0-|------0-------0-|0---|
C|----5-------5---|----5-------5---|0---| (Let this ring
G|--7-------7-----|--7-------7-----|0---|  for a really
C|0-------0-------|7-------7-------|0---|  long time.)
A|----------------|----------------|3---|
C|----------------|----------------|0---|

Hope you can figure it out, please rate. Congratulations to UG on their 10th year of
the best tab website on the web.
Related for Bron-yr-aur tab