Song name
# A B C D E F G H I J K L M N O P Q R S T U V W X Y Z

Led Zeppelin - Stairway To Heaven tab

Stairway to Heaven
Led Zeppelin

Intro
E-------5-7-----7-|-8-----8-2-----2-|-0---------0-----|-----------------|
B-----5-----5-----|---5-------4-----|---1---1-----1---|-0-1-1-----------|
G---5---------5---|-----5-------2---|-----2---------2-|-0-2-2-----------|
D-7-------6-------|-5-------4-------|-3---------------|-----------------|
A-----------------|-----------------|-----------------|-2-0-0---0--/8-7-|
E-----------------|-----------------|-----------------|-----------------|

E---------7-----7-|-8-----8-2-----2-|-0---------0-----|-----------------|
B-------5---5-----|---5-------4-----|---1---1-----1---|-0-1-1-----------|
G-----5-------5---|-----5-------2---|-----2---------2-|-0-2-2-----------|
D---7-----6-------|-5-------4-------|-3---------------|-----------------|
A-0---------------|-----------------|-----------------|-2-0-0-------0-2-|
E-----------------|-----------------|-----------------|-----------------|

E-------0-2-----2-|-0-----0---------|---------3-----3-|-3^2-2-2---------|
B-----------3-----|---1-----0-------|-1-----1---0-----|-----3-3---------|
G-----0-------2---|-----2-----2-----|---0---------0---|-----------------|
D---2-----0-------|-3---------------|-----2-----------|-0---0-0---------|
A-3---------------|---------0---0-2-|-3---------------|-------------0-2-|
E-----------------|-----------------|---------3-------|-----------------|

E---------2-----2-|-0-----0---------|---------------2-|-0-0-0-----------|
B-------1---3-----|---1-----0-------|-------1-----3---|-1-1-1-----------|
G-----0-------2---|-----2-----2-----|-----0-----2-----|-2-2-2-----------|
D---2-----0-------|-3---------------|---2-----0-------|-3-3-3-----------|
A-3---------------|---------0---0-2-|-3---------------|-----------------|
E-----------------|-----------------|-----------------|-----------------|
                                                               End Intro.
                                                              There’s a

Verse 1
E-------5-7-----7-|-8-----8-2-----2-|-0---------0-----|-----------------|
B-----5-----5-----|---5-------4-----|---1---1-----1---|-0-1-1-----------|
G---5---------5---|-----5-------2---|-----2---------2-|-0-2-2-----------|
D-7-------6-------|-5-------4-------|-3---------------|-----------------|
A-----------------|-----------------|-----------------|-2-0-0-----------|
E-----------------|-----------------|-----------------|-----------------|
lady who’s sure ....               ....the stairway to heaven       When

E-------5-7-----7-|-8-----8-2-----2-|-0---------0-----|-----------------|
B-----5-----5-----|---5-------4-----|---1---1-----1---|-0-1-1-----------|
G---5---------5---|-----5-------2---|-----2---------2-|-0-2-2-----------|
D-7-------6-------|-5-------4-------|-3---------------|-----------------|
A-----------------|-----------------|-----------------|-2-0-0-------0-2-|
E-----------------|-----------------|-----------------|-----------------|
she gets there....                  ....get what she came for

E---------2-----2-|-0-----0---------|---------3-----3-|-3^2-2-2---------|
B-------1---3-----|---1-----0-------|-1-----1---0-----|-----3-3---------|
G-----0-------2---|-----2-----2-----|---0---------0---|-----------------|
D---2-----0-------|-3---------------|-----2-----------|-0---0-0---------|
A-3---------------|---------0---0-2-|-3---------------|-------------0-2-|
E-----------------|-----------------|---------3-------|-----------------|
Ooh               ooh....            ....the stairway to heaven   There’s

E-------0-2-----2-|-0-----0---------|---------2-----2-|-0-0-0-----------|
B-----------3-----|---1-----0-------|-1-----1---3-----|-1-1-1-----------|
G-----0-------2---|-----2-----2-----|---0---------2---|-2-2-2-----------|
D---2-----0-------|-3---------------|-----2---0-------|-3-3-3-----------|
A-3---------------|---------0---0-2-|-3---------------|-----------------|
E-----------------|-----------------|-----------------|-----------------|
a sign on the wall....              ....words have no meaning     In a

E-------5-7-----7-|-8-----8-2-----2-|-0---------0-----|-----------------|
B-----5-----5-----|---5-------4-----|---1---1-----1---|-0-1-1-----------|
G---5---------5---|-----5-------2---|-----2---------2-|-0-2-2-----------|
D-7-------6-------|-5-------4-------|-3---------------|-----------------|
A-----------------|-----------------|-----------------|-2-0-0---0--/8-7-|
E-----------------|-----------------|-----------------|-----------------|
tree by the brook....            ....our thoughts are misgiven

Interlude
E-------5-7---7---|----8-------2----|----0-------0----|-----------------|
B----------5-5-5--|---5-5-----3-3---|---1--1----1-1---|-0-1-1-------3---|
G-----5-----5---5-|--5---5---2---2--|--2----2--2---2--|-0-2-2-------0---|
D---7-----6-------|-5-----5-4-----4-|-3-------3-----3-|-------------0---|
A-0---------------|-----------------|-----------------|-2-0-0-------2---|
E-----------------|-----------------|-----------------|-----------------|

E-3---3-3-3--3--0-0-|-2-------2-------|-3--3-3-3--3--0-0---7-|--5---3---5----
B-1---1-1-1--1--1-3-|-3--3--3---3-0-0-|-1--1-1-1--1--1-1---8-|--7---5---7----
G-2---2-2-2--2--2-2-|-2-----------0-0-|-2--2-2-2--2--2-2---9-|--7---5---7----
D-2---2-2-2--2--2---|---0-------------|-2--2-2-2--2--2-2---0-|-------------0-
A-------------------|-----------------|----------------------|-------------0-
E-------------------|-----------------|----------------------|---------------
                      Oooh it makes ...

E-3---3-3-3--3--0-0-|-2-------2-------|-3--3-3-3--3--0-0---7-|--5---3---5----
B-1---1-1-1--1--1-3-|-3--3--3---3-0-0-|-1--1-1-1--1--1-1---8-|--7---5---7----
G-2---2-2-2--2--2-2-|-2-----------0-0-|-2--2-2-2--2--2-2---9-|--7---5---7----
D-2---2-2-2--2--2---|---0-------------|-2--2-2-2--2--2-2---0-|-------------0-
A-------------------|-----------------|----------------------|-------------0-
E-------------------|-----------------|----------------------|---------------
   oooh               makes me ....					there’s

E------------------|------------------------|-----------------0--|--0--------
B---------1------3-|-0h1----------1---------|-------1---------0--|--1--------
G-------0------0---|-----2-------2----------|-----0--------0--2--|--2--------
D-----2------0-----|---------2--------------|---2--------0----3--|--2--------
A-0h3------2-------|-------0----------0--2--|-3--------2------3--|--0---0-2--
E------------------|------------------------|-----------------1--|-----------
a feeling I get....                           ....crying for leaving   In my 

E----------------|--------------------|----------------0-|--0------|---------
B-------1------3-|-0h1---------1------|-------1--------1-|--1------|----1---3
G-----0------0---|-----2-----2--------|-----0-------0--2-|--2------|---0---0-
D---2------0-----|---------2----------|---2-------0----3-|--2------|--2---0--
A-3------2-------|-------0------0--2--|-3-------2------3-|--0--0-2-|-3---2---
E----------------|--------------------|----------------1-|---------|---------
thoughts I have seen....               ....who stand looking   

E-3---3-3-3--3--0-0-|-2-------2-------|-3--3-3-3--3--0-0---7-|--5---3---5----
B-1---1-1-1--1--1-3-|-3--3--3---3-0-0-|-1--1-1-1--1--1-1---8-|--7---5---7----
G-2---2-2-2--2--2-2-|-2-----------0-0-|-2--2-2-2--2--2-2---9-|--7---5---7----
D-2---2-2-2--2--2---|---0-------------|-2--2-2-2--2--2-2---0-|-------------0-
A-------------------|-----------------|----------------------|-------------0-
E-------------------|-----------------|----------------------|---------------
                      Oooh it makes ...

E-3---3-3-3--3--0-0-|-2-------2-------|-3--3-3-3--3--0-0---7-|--5---3---5----
B-1---1-1-1--1--1-3-|-3--3--3---3-0-0-|-1--1-1-1--1--1-1---8-|--7---5---7----
G-2---2-2-2--2--2-2-|-2-----------0-0-|-2--2-2-2--2--2-2---9-|--7---5---7----
D-2---2-2-2--2--2---|---0-------------|-2--2-2-2--2--2-2---0-|-------------0-
A-------------------|-----------------|----------------------|-------------0-
E-------------------|-----------------|----------------------|---------------
   oooh               makes me ....                                        And

E------------------|------------------------|-----------------0--|--0--------
B---------1------3-|-0h1----------1---------|-------1---------0--|--1--------
G-------0------0---|-----2-------2----------|-----0--------0--2--|--2--------
D-----2------0-----|---------2--------------|---2--------0----3--|--2--------
A-0h3------2-------|-------0----------0--2--|-3--------2------3--|--0---0-2--
E------------------|------------------------|-----------------1--|-----------
it’s whispered that soon....                        ....us to reason   And a

E----------------|--------------------|----------------0-|--0------|---------
B-------1------3-|-0h1---------1------|-------1--------1-|--1------|----1---3
G-----0------0---|-----2-----2--------|-----0-------0--2-|--2------|---0---0-
D---2------0-----|---------2----------|---2-------0----3-|--2------|--2---0--
A-3------2-------|-------0------0--2--|-3-------2------3-|--0--0-2-|-3---2---
E----------------|--------------------|----------------1-|---------|---------
new day will dawn....                 ....echo with laughter

E-3---3-3-3--3--0-0-|-2-------2-------|-3--3-3-3--3--0-0---7-|--5---3---5----
B-1---1-1-1--1--1-3-|-3--3--3---3-0-0-|-1--1-1-1--1--1-1---8-|--7---5---7----
G-2---2-2-2--2--2-2-|-2-----------0-0-|-2--2-2-2--2--2-2---9-|--7---5---7----
D-2---2-2-2--2--2---|---0-------------|-2--2-2-2--2--2-2---0-|-------------0-
A-------------------|-----------------|----------------------|-------------0-
E-------------------|-----------------|----------------------|---------------
                      Oooh it makes ...

E-3---3-3-3--3--0-0-|-2-------2-------|-3--3-3-3--3--0-0---7-|--5---3---5----
B-1---1-1-1--1--1-3-|-3--3--3---3-0-0-|-1--1-1-1--1--1-1---8-|--7---5---7----
G-2---2-2-2--2--2-2-|-2-----------0-0-|-2--2-2-2--2--2-2---9-|--7---5---7----
D-2---2-2-2--2--2---|---0-------------|-2--2-2-2--2--2-2---0-|-------------0-
A-------------------|-----------------|----------------------|-------------0-
E-------------------|-----------------|----------------------|---------------
   oooh               makes me ....                                        
 
E------------------|------------------------|-----------------0--|--0--------
B---------1------3-|-0h1----------1---------|-------1---------1--|--1--------
G-------0------0---|-----2-------2----------|-----0--------0--2--|--2--------
D-----2------0-----|---------2--------------|---2--------0----3--|--2--------
A-0h3------2-------|-------0----------0--2--|-3--------2------3--|--0---0-2--
E------------------|------------------------|-----------------1--|-----------
If there’s a bustle....                        ....for the May-Queen

E------------------|------------------------|-----------------0--|--0--------
B---------1------3-|-0h1----------1---------|-------1---------1--|--1--------
G-------0------0---|-----2-------2----------|-----0--------0--2--|--2--------
D-----2------0-----|---------2--------------|---2--------0----3--|--2--------
A-0h3------2-------|-------0----------0--2--|-3--------2------3--|--0---0-2--
E------------------|------------------------|-----------------1--|-----------
Yes there are two paths....                   ....the road you’re on

E----------------|-3--3-3-3--3--0-0-|-2-----2-2-2-2-----|-3--3-3-3--3--0-7-
B-------1------0-|-1--1-1-1--1--1-3-|-3-----3-3-3-3-0-0-|-1--1-1-1--1--1-8-
G-----0------0---|-2--2-2-2--2--0-0-|-2--2--2-2-2-2-0-0-|-0--0-2-0--0--0-9-
D---2------0-----|-2--2-2-2--2------|----0--0-----------|-2--2-2-2--2------
A-3------2-------|------------------|-------------------|------------------
E----------------|------------------|-------------------|------------------
                                          and it    ...
 
-5--3--5--|-3--3-3-3--3--0-0-|-2-----2-2-2-2-0-0-|-3--3-3-3--3--0-7-|-5--3--5-
-7--5--7--|-1--1-1-1--1--1-3-|-3--3--3-3-3-3-0-0-|-1--1-1-1--1--1-8-|-7--5--7-
-7--5--7--|-2--2-2-2--2--0-0-|-2--2--2-2-2-2-0-0-|-0--0-2-0--0--0-9-|-7--5--7-
----------|-2--2-2-2--2------|-------------------|-2--2-2-2--2------|---------
--------0-|------------------|-------------------|------------------|--------0
----------|------------------|-------------------|------------------|---------
                                oooh
 
E------------------|------------------------|-----------------0--|--0--------
B---------1------3-|-0h1----------1---------|-------1---------1--|--1--------
G-------0------0---|-----2-------2----------|-----0--------0--2--|--2--------
D-----2------0-----|---------2--------------|---2--------0----3--|--2--------
A-0h3------2-------|-------0----------0--2--|-3--------2------3--|--0---0-2--
E------------------|------------------------|-----------------1--|-----------
Your head is humming....                              ....to join him

E------------------|------------------------|-----------------0--|--0--------
B---------1------3-|-0h1----------1---------|-------1---------1--|--1--------
G-------0------0---|-----2-------2----------|-----0--------0--2--|--2--------
D-----2------0-----|---------2--------------|---2--------0----3--|--2--------
A-0h3------2-------|-------0----------0--2--|-3--------2------3--|--0---0-2--
E------------------|------------------------|-----------------1--|-----------
Dear lady you can hear....                 ....on the whispering wind

-----3--------3---|--2---------0-2--|-3----0-2--3--0-2--|---3-3-2---------
---5--------3---4-|--3-------3-3-3--|-3--3-3-3--3--3-3--|---3-3-3-3-------
-5-----5--4-------|--2-------2-2-2--|-2--2-2-2--2--2-2--|---2-2-2-0-------
------------------|-----------------|-0--0-0-0--0--0-0--|---0-0-0-2-------
------------------|-----------------|-------------------|---------3-------
------------------|-----------------|-------------------|-----------------

---2-2-2---|---2--2-2--0-0-0-2-|-3-0-2--0-2-|-3-3-3-3-|---2--2-2-0-0-|-0-2-2-0
-3-3-3-3-1-|-1-3--3-3--3-3-3-3-|-3-3-3--3-3-|-3-3-3-3-|-3-3--3-3-3-3-|-3-3-3-3
-0-0-0-0-0-|-0-0--0-0------2-2-|-2-2-2--2-2-|-2-2-2-0-|-0-0--0-0-0-0-|-0-0-0-0
---------2-|-----------0-0-0-0-|-0-0-0--0-0-|-0-0-0-2-|-2------------|--------
---------3-|-------------------|------------|-------3-|--------------|--------
-----------|-------------------|------------|---------|--------------|--------

Ok this is where the solo starts.                  Am     - x02210
I'll include the chords to play over               Am7    - x02010
it they sound pretty open I think                  Fmaj7  - xx3210
its a 12 string.


Props to tha niggaz at GuitareTab.com.
Peace out y'all!!

MR. BIGG
Tap to rate this tab
# A B C D E F G H I J K L M N O P Q R S T U V W X Y Z