Song name
# A B C D E F G H I J K L M N O P Q R S T U V W X Y Z

Led Zeppelin - Ten Years Gone tab

One of my favorite Zeppelin songs, and a great solo and this is how I tend 
to play it.

| /   slide up
| \   slide down
| b   bend
| h   hammer-on
| p   pull-off
| r   release-bend
| v   vibrato

e|10-/-12--10----------------------------------------------------------------|
B|10-/-12--10----------------------------------------------------------------|
G|-----------------9-/-11-\-9----9b11--9b11----9b11--9--7--------------------|
D|-----------------9-/-11-\-9---------------------------------9--------------|
A|--------------------------------------------------------------v10----------|
D|---------------------------------------------------------------------------|


e|--------------------------7-7----------------------------------------------|
B|--------------------------8p7----------------------------------------------|
G|9b11r9--7----7--9--7-v7------7---------------------------------------------|
D|----------9----------------------------7-----------------------------------|
A|------------------------------------------10--v9---------------------------|
D|---------------------------------------------------------------------------|


e|7h10p7--5h7p5--3---7h10p7---5h7p5--3---7h10p7----7-7-7-7-------------------|
B|7h10p7--5h7p5--3---7h10p7---5h7p5--3---7h10p7----7h8-8h10--/v12------------|
G|---------------------------------------------------------------------------|
D|---------------------------------------------------------------------------|
A|---------------------------------------------------------------------------|
D|---------------------------------------------------------------------------|


e|-------------------------------------------------------------------15--17--|
B|------15---17b19--17b19--17b19---17--15------15--17--15-----17b19----------|
G|-/16-------------------------------------16--------------------------------|
D|---------------------------------------------------------------------------|
A|---------------------------------------------------------------------------|
D|---------------------------------------------------------------------------|


e|-17--17b19-----------17b19--15--17--15--17--15-----------------------------|
B|-----------v15-17b19-------------------------------15-17-15-17b18r17p15-17-|
G|-----------------------------------------------16--------------------------|
D|---------------------------------------------------------------------------|
A|---------------------------------------------------------------------------|
D|---------------------------------------------------------------------------|


e|17-17-17----------------10/12\10-------7h10p7--5--3--7h10p7--5h7p5--3------|
B|---------17b18r17--15---10/12\10-------7h10p7--5--3--7h10p7--5h7p5--3------|
G|---------------------------------------------------------------------------|
D|---------------------------------------------------------------------------|
A|---------------------------------------------------------------------------|
D|---------------------------------------------------------------------------|


e|7h10p7--5h7p5--3--7h10p7--5h7p5------------------------------------15-16-17|
B|7h10p7--5h7p5--3--7h10p7--5h7p5------------------------15-17--17b19--------|
G|--------------------------------6-7--7-7-7/12-/v16--/16--------------------|
D|---------------------------------------------------------------------------|
A|---------------------------------------------------------------------------|
D|---------------------------------------------------------------------------|


e|-17b19-------17------------17----------------------------------------------|
B|--------15-----17b19--15-----17b19-15-17b19r17--v15------------------------|
G|---------------------------------------------------------------------------|
D|---------------------------------------------------------------------------|
A|---------------------------------------------------------------------------|
D|---------------------------------------------------------------------------|
Tap to rate this tab
 
# A B C D E F G H I J K L M N O P Q R S T U V W X Y Z