Song name
# A B C D E F G H I J K L M N O P Q R S T U V W X Y Z

Led Zeppelin - Hats Off To Roy Harper tab

#----------------------------------PLEASE NOTE---------------------------------#
#This file is the author's own work and represents their interpretation of the #
#song. You may only use this file for private study, scholarship, or research. #
#------------------------------------------------------------------------------##

                            HATS OFF TO (ROY) HARPER
                           As recorded by Led Zeppelin
                     (From the 1970 Album LED ZEPPELIN III)

Words and Music by Charles Obscure

Gtr I (C G C E G C) - 'Untitled'

 Intro
  (s8=8)                                 In time Q=114
          C                                  EbC   EbC
 4/4
  Gtr I
                         >
           ~~~~~~~~~~~~~~~~~~~~~~                             ~~~~~~~~
  H    Q   E  E    E  E  E  E  E E E S S   S S E S S E S   S  S  S  E S S
|---------12-12-:-12-12-12-12-12-----0-0-|-2s3-0-2s3-0-5/-12-12-12-12-0-0-|
|---------12-12-:-12-12-12-12-12-----0-0-|-2s3-0-2s3-0-5/-12-12-12-12-0-0-|
|---------12-12-:-12-12-12-12-12-----0-0-|-2s3-0-2s3-0-5/-12-12-12-12-0-0-|
|---------12-12-:-12-12-12-12-12-----0-0-|-2s3-0-2s3-0-5/-12-12-12-12-0-0-|
|---------12-12-:-12-12-12-12-12-----0-0-|-2s3-0-2s3-0-5/-12-12-12-12-0-0-|
|---------12-12-:-12-12-12-12-12-----0-0-|-2s3-0-2s3-0-5/-12-12-12-12-0-0-|


   1st Verse
      EbC   EbC                        EbC   EbC
                       ~~~~~~~~                         ~~~~~~~~
    S S E S S E S   S  S  S  E S S   S S E S S E S   S  S  S  E S S  9x
||--2s3-0-2s3-0-5/-12-12-12-12-0-0-|-2s3-0-2s3-0-5/-12-12-12-12-0-0--||
||o-2s3-0-2s3-0-5/-12-12-12-12-0-0-|-2s3-0-2s3-0-5/-12-12-12-12-0-0-o||
||--2s3-0-2s3-0-5/-12-12-12-12-0-0-|-2s3-0-2s3-0-5/-12-12-12-12-0-0--||
||--2s3-0-2s3-0-5/-12-12-12-12-0-0-|-2s3-0-2s3-0-5/-12-12-12-12-0-0--||
||o-2s3-0-2s3-0-5/-12-12-12-12-0-0-|-2s3-0-2s3-0-5/-12-12-12-12-0-0-o||
||--2s3-0-2s3-0-5/-12-12-12-12-0-0-|-2s3-0-2s3-0-5/-12-12-12-12-0-0--||


 Pre-Verse
    EbC   EbC
                                  7/8
                     ~~~~~~~~
  S S E S S E S   S  S  S  E S S   T  T E S T  T E S T E S.  S  S
|-2s3-0-2s3-0-5/-12-12-12-12-0-0-|-5s12-0-0-5s12-0-0-5s0----------|
|-2s3-0-2s3-0-5/-12-12-12-12-0-0-|-5s12-0-0-5s12-0-0-5s0----10s12-|
|-2s3-0-2s3-0-5/-12-12-12-12-0-0-|-5s12-0-0-5s12-0-0-5s0----10s12-|
|-2s3-0-2s3-0-5/-12-12-12-12-0-0-|-5s12-0-0-5s12-0-0-5s0----10s12-|
|-2s3-0-2s3-0-5/-12-12-12-12-0-0-|-5s12-0-0-5s12-0-0-5s0-0--------|
|-2s3-0-2s3-0-5/-12-12-12-12-0-0-|-5s12-0-0-5s12-0-0-5s0-0--------|


  N.C.                             C                  F C
 4/4
   S  E  S  E  E a E S S E     E   E S  S S S E S S E E E
|--------------------------------|---5s12-0-0-0-----3S5-0-|
|------------------0-------------|---5s12-0-0-0-----3S5-0-|
|--------------------1s3-2b2.5-0-|-0-5s12-0-0-0-----3S5-0-|
|-10s12-12-12-10s7---------------|-0-5s12-0-0-0-0-0-3S5-0-|
|--------------------------------|-0-5s12-0-0-0-0-0-3S5-0-|
|--------------------------------|-0-5s12-0-0-0-0-0-3S5-0-|


  N.C.                         C                  F C
  E  S S E S S E S S a S S E   E S  S S S E S S E E E
|-6s11-0-0-----0-------------|---5s12-0-0-0-----3S5-0-|
|----------2s3---------------|---5s12-0-0-0-----3S5-0-|
|----------------1s3-1s3p0-0-|-0-5s12-0-0-0-----3S5-0-|
|----------------------------|-0-5s12-0-0-0-0-0-3S5-0-|
|----------------------------|-0-5s12-0-0-0-0-0-3S5-0-|
|----------------------------|-0-5s12-0-0-0-0-0-3S5-0-|


    N.C.(F)                C
 7/8                      4/4
  a E. S E S S E a E a E   E S S S S E E S S S S E
|------------------------|---0-0-0-0-0---0-0-0-0-0-|
|------------------------|---0-0-0-0-0---0-0-0-0-0-|
|------------------------|---0-0-0-0-0---0-0-0-0-0-|
|-3s5--------------------|---0-0-0-0-0---0-0-0-0-0-|
|-3s5--5-5-5s3-0---------|-0-0-0-0-0-0-0-0-0-0-0-0-|
|-3s5------------2s3-2s3-|-0-0-0-0-0-0-0-0-0-0-0-0-|


  C                        Eb      C                    Eb
  S S S S  E S S S S S S a E a E   E S S  E S S E S S a E a E
|-0-0-0-5s12-0-0-0-0-0-0---------|-0-0-5s12-0-0-0-0-0---------|
|-0-0-0-5s12-0-0-0-0-0-0---------|-0-0-5s12-0-0-0-0-0---------|
|-0-0-0-5s12-0-0-0-0-0-0---------|-0-0-5s12-0-0-0-0-0---------|
|-0-0-0-5s12-0-0-0-0-0-0-2s3-2s3-|-0-0-5s12-0-0-0-0-0-2s3-2s3-|
|-0-0-0-5s12-0-0-0-0-0-0-2s3-2s3-|-0-0-5s12-0-0-0-0-0-2s3-2s3-|
|-0-0-0-5s12-0-0-0-0-0-0-2s3-2s3-|-0-0-5s12-0-0-0-0-0-2s3-2s3-|


 2nd Verse
  C                    Eb      C                    Eb
  E E a  E S S E S S a E a E   E E a  E S S E S S a E a E
|-0---5s12-0-0---0-0-2s3-2s3-|-----5s12-0-0---0-0-2s3-2s3--|
|-0---5s12-0-0---0-0-2s3-2s3-|-----5s12-0-0---0-0-2s3-2s3--|
|-0---5s12-0-0---0-0-2s3-2s3-|-----5s12-0-0---0-0-2s3-2s3--|
|-0---5s12-0-0-0-0-0-2s3-2s3-|-----5s12-0-0-0-0-0-2s3-2s3--|
|-0---5s12-0-0-0-0-0-2s3-2s3-|-0---5s12-0-0-0-0-0-2s3-2s3--|
|-0-0-5s12-0-0-0-0-0-2s3-2s3-|-0-0-5s12-0-0-0-0-0-2s3-2s3--|


  C                    Eb      C                    EbC
  E E a  E S S E S S a E a E   E E a  E S S E S S a E S S
|-----5s12-0-0---0-0-2s3-2s3-|-----5s12-0-0-0-0-0-2s3-0-0--|
|-----5s12-0-0---0-0-2s3-2s3-|-----5s12-0-0-0-0-0-2s3-0-0--|
|-0---5s12-0-0---0-0-2s3-2s3-|-----5s12-0-0-0-0-0-2s3-0-0--|
|-0---5s12-0-0-0-0-0-2s3-2s3-|-0---5s12-0-0-0-0-0-2s3-0-0--|
|-0---5s12-0-0-0-0-0-2s3-2s3-|-0---5s12-0-0-0-0-0-2s3-0-0--|
|-0-0-5s12-0-0-0-0-0-2s3-2s3-|-0-0-5s12-0-0-0-0-0-2s3-0-0--|


  C                                F
  E S S a  E S S S S S S S S S S   E E S S E E S S E E
|-------5s12-0-0-0-0-0-0-0-0-0-0-|-5-5-5-5-5-5-5-5-5-5-|
|-------5s12-0-0-0-0-0-0-0-0-0-0-|-5-5-5-5-5-5-5-5-5-5-|
|-------5s12-0-0-0-0-0-0-0-0-0-0-|-5-5-5-5-5-5-5-5-5-5-|
|---0-0-5s12-0-0-0-0-0-0-0-0-0-0-|-5-5-5-5-5-5-5-5-5-5-|
|---0-0-5s12-0-0-0-0-0-0-0-0-0-0-|-5-5-5-5-5-5-5-5-5-5-|
|-0-0-0-5s12-0-0-0-0-0-0-0-0-0-0-|-5-5-5-5-5-5-5-5-5-5-|


  F             C EbF   C                    EbF
  S S E E S S e E E E   E S S a  E S S E S S E E
|-5-5-5-5-5-5-5-0-3-5-|-0-0-0-5s12-0-0-0-0-0-3S5-|
|-5-5-5-5-5-5-5-0-3-5-|-0-0-0-5s12-0-0-0-0-0-3S5-|
|-5-5-5-5-5-5-5-0-3-5-|-0-0-0-5s12-0-0-0-0-0-3S5-|
|-5-5-5-5-5-5-5-0-3-5-|-0-0-0-5s12-0-0-0-0-0-3S5-|
|-5-5-5-5-5-5-5-0-3-5-|-0-0-0-5s12-0-0-0-0-0-3S5-|
|-5-5-5-5-5-5-5-0-3-5-|-0-0-0-5s12-0-0-0-0-0-3S5-|


  C                    EbF   C Eb G
  E S S a  E S S E S S E E   E E  S S E E S S +S  S E
|-0-0-0-5s12-0-0-0-0-0-3S5-|-0-3/-7-7-7-7-7-7-(7)-7-7-|
|-0-0-0-5s12-0-0-0-0-0-3S5-|-0-3/-7-7-7-7-7-7-(7)-7-7-|
|-0-0-0-5s12-0-0-0-0-0-3S5-|-0-3/-7-7-7-7-7-7-(7)-7-7-|
|-0-0-0-5s12-0-0-0-0-0-3S5-|-0-3/-7-7-7-7-7-7-(7)-7-7-|
|-0-0-0-5s12-0-0-0-0-0-3S5-|-0-3/-7-7-7-7-7-7-(7)-7-7-|
|-0-0-0-5s12-0-0-0-0-0-3S5-|-0-3/-7-7-7-7-7-7-(7)-7-7-|


  F           C   Eb      C                  EbF
  E E S S E E S S E S S   E S  S S S E E S S E E
|-5-5-5-5-5-5-0-0-3-3-3-|---5s12-0-0-0-0-0-0-3S5-|
|-5-5-5-5-5-5-0-0-3-3-3-|---5s12-0-0-0-0-0-0-3S5-|
|-5-5-5-5-5-5-0-0-3-3-3-|---5s12-0-0-0-0-0-0-3S5-|
|-5-5-5-5-5-5-0-0-3-3-3-|-0-5s12-0-0-0-0-0-0-3S5-|
|-5-5-5-5-5-5-0-0-3-3-3-|-0-5s12-0-0-0-0-0-0-3S5-|
|-5-5-5-5-5-5-0-0-3-3-3-|-0-5s12-0-0-0-0-0-0-3S5-|


  C                  EbF   C                  EbF
  E E a  E S S E S S E E   E E a  E S S E S S E E
|-----5s12-0-0-0-0-0-3S5-|-----5s12-0-0-0-0-0-3S5-|
|-----5s12-0-0-0-0-0-3S5-|-----5s12-0-0-0-0-0-3S5-|
|-0---5s12-0-0-0-0-0-3S5-|-0---5s12-0-0-0-0-0-3S5-|
|-0---5s12-0-0-0-0-0-3S5-|-0---5s12-0-0-0-0-0-3S5-|
|-0---5s12-0-0-0-0-0-3S5-|-0---5s12-0-0-0-0-0-3S5-|
|-0-0-5s12-0-0-0-0-0-3S5-|-0-0-5s12-0-0-0-0-0-3S5-|


  C                  EbF   C                  EbF
  E E a  E S S E S S E E   E E a  E S S E S S E E
|-----5s12-0-0-0-0-0-3S5-|-----5s12-0-0-0-0-0-3S5-|
|-----5s12-0-0-0-0-0-3S5-|-----5s12-0-0-0-0-0-3S5-|
|-0---5s12-0-0-0-0-0-3S5-|-0---5s12-0-0-0-0-0-3S5-|
|-0---5s12-0-0-0-0-0-3S5-|-0---5s12-0-0-0-0-0-3S5-|
|-0---5s12-0-0-0-0-0-3S5-|-0---5s12-0-0-0-0-0-3S5-|
|-0-0-5s12-0-0-0-0-0-3S5-|-0-0-5s12-0-0-0-0-0-3S5-|


 Interlude
  C                       EbC     EbC   EbC
  E E S S E E S S E E   a S S E a E E a E E E E
|-0-0-0-0-0-0-0-0-0-0-|-2s3-0-0-2s3-0-2s3-0-0-0-|
|-0-0-0-0-0-0-0-0-0-0-|-2s3-0-0-2s3-0-2s3-0-0-0-|
|-0-0-0-0-0-0-0-0-0-0-|-2s3-0-0-2s3-0-2s3-0-0-0-|
|-0-0-0-0-0-0-0-0-0-0-|-2s3-0-0-2s3-0-2s3-0-0-0-|
|-0-0-0-0-0-0-0-0-0-0-|-2s3-0-0-2s3-0-2s3-0-0-0-|
|-0-0-0-0-0-0-0-0-0-0-|-2s3-0-0-2s3-0-2s3-0-0-0-|


  EbC     EbC     EbC     EbC       EbC     EbC              EbC
  S S S S S S S S S S S S S S S S   S S S S S S S S a  S E S S S S S
|-----0-0-----0-0-----0-0-----0-0-|-----0-0-----0-0-5s12-0-0-----0-0-|
|-3p0-0-0-3p0-0-0-3p0-0-0-3p0-0-0-|-3p0-0-0-3p0-0-0-5s12-0-0-3p0-0-0-|
|-3p0-0-0-3p0-0-0-3p0-0-0-3p0-0-0-|-3p0-0-0-3p0-0-0-5s12-0-0-3p0-0-0-|
|-3p0-0-0-3p0-0-0-3p0-0-0-3p0-0-0-|-3p0-0-0-3p0-0-0-5s12-0-0-3p0-0-0-|
|-3p0-0-0-3p0-0-0-3p0-0-0-3p0-0-0-|-3p0-0-0-3p0-0-0-5s12-0-0-3p0-0-0-|
|-----0-0-----0-0-----0-0-----0-0-|-----0-0-----0-0-5s12-0-0-----0-0-|


    C        EbC                EbC
  a  S S S S S S S S a  S S S S S S S S
|-5s12-0-0-0-----0-0-5s12-0-0-0-----0-0-|
|-5s12-0-0-0-3p0-0-0-5s12-0-0-0-3p0-0-0-|
|-5s12-0-0-0-3p0-0-0-5s12-0-0-0-3p0-0-0-|
|-5s12-0-0-0-3p0-0-0-5s12-0-0-0-3p0-0-0-|
|-5s12-0-0-0-3p0-0-0-5s12-0-0-0-3p0-0-0-|
|-5s12-0-0-0-----0-0-5s12-0-0-0-----0-0-|


             EbC                EbC
  a  S S S S S S S S a  S S S S S S S S
|-5s12-0-0-0-----0-0-5s12-0-0-0-----0-0-|
|-5s12-0-0-0-3p0-0-0-5s12-0-0-0-3p0-0-0-|
|-5s12-0-0-0-3p0-0-0-5s12-0-0-0-3p0-0-0-|
|-5s12-0-0-0-3p0-0-0-5s12-0-0-0-3p0-0-0-|
|-5s12-0-0-0-3p0-0-0-5s12-0-0-0-3p0-0-0-|
|-5s12-0-0-0-----0-0-5s12-0-0-0-----0-0-|


     Gm
   a  E  a  E  a  E  a  E  a  E  a  E  a  E  a  E
|-13s14-13s14-13s14-13s14-13s14-13s14-13s14-13s14-|
|-14s15-14s15-14s15-14s15-14s15-14s15-14s15-14s15-|
|-14s15-14s15-14s15-14s15-14s15-14s15-14s15-14s15-|
|-------------------------------------------------|
|-------------------------------------------------|
|-------------------------------------------------|


   a  E  a  E  a  E  a  E  S  S  S  S E a E
|-13s14-13s14-13s14-13s14-------------------|
|-14s15-14s15-14s15-14s15-------------------|
|-14s15-14s15-14s15-14s15-10s12-------------|
|-------------------------------12s10-7s4-0-|
|-------------------------------------------|
|-------------------------------------------|


  C                  EbC                            EbC
  E E a  E S S E S S S S S S   E S S a  E S S E S S S S S S
|-----5s12-0-0-0-0-0-----0-0-|-0-0-0-5s12-0-0-0-0-0-----0-0-|
|-----5s12-0-0-0-0-0-3p0-0-0-|-0-0-0-5s12-0-0-0-0-0-3p0-0-0-|
|---0-5s12-0-0-0-0-0-3p0-0-0-|-0-0-0-5s12-0-0-0-0-0-3p0-0-0-|
|---0-5s12-0-0-0-0-0-3p0-0-0-|-0-0-0-5s12-0-0-0-0-0-3p0-0-0-|
|-0-0-5s12-0-0-0-0-0-3p0-0-0-|-0-0-0-5s12-0-0-0-0-0-3p0-0-0-|
|-0-0-5s12-0-0-0-0-0-----0-0-|-0-0-0-5s12-0-0-0-0-0-----0-0-|


  C         EbC           EbC               EbF   N.C.(C)
  S S S S a S S S S E S S S S S S   a E S S E S S S S E a E a E
|-0-0-0-0-2s3-0-0-0-0-0-0-----0-0-|-----0-0----------------------|
|-0-0-0-0-2s3-0-0-0-0-0-0-3p0-0-0-|-----0-0----------------------|
|-0-0-0-0-2s3-0-0-0-0-0-0-3p0-0-0-|-----0-0----------------------|
|-0-0-0-0-2s3-0-0-0-0-0-0-3p0-0-0-|-----0-0-3s5-5----------------|
|-0-0-0-0-2s3-0-0-0-0-0-0-3p0-0-0-|-3s5-0-0-3s5-5-5s3-0----------|
|-0-0-0-0-2s3-0-0-0-0-0-0-----0-0-|-----0-0-3s5-5-------2s3-2s3--|


  C     EbC            EbC EbC         EbC            EbC EbC
  E S S S S S S S  E S S S S S   E S S S S S S S  E S S S S S
|-----------0-0-5s12-0---------|-0-0-0-----0-0-5s12-0---------|
|-0-0-0-----0-0-5s12-0-3p0-3p0-|-0-0-0-3p0-0-0-5s12-0-3p0-3p0-|
|-0-0-0-----0-0-5s12-0-3p0-3p0-|-0-0-0-3p0-0-0-5s12-0-3p0-3p0-|
|-0-0-0-3p0-0-0-5s12-0-3p0-3p0-|-0-0-0-3p0-0-0-5s12-0-3p0-3p0-|
|-0-0-0-3p0-0-0-5s12-0-3p0-3p0-|-0-0-0-3p0-0-0-5s12-0-3p0-3p0-|
|-0-0-0-----0-0-5s12-0---------|-0-0-0-----0-0-5s12-0---------|


  C     EbC            EbC EbC         EbC            EbC EbC
  E S S S S S S S  E S S S S S   E S S S S S S S  E S S S S S
|-----------0-0-5s12-0---------|-0-0-0-----0-0-5s12-0---------|
|-0-0-0-3p0-0-0-5s12-0-3p0-3p0-|-0-0-0-3p0-0-0-5s12-0-3p0-3p0-|
|-0-0-0-3p0-0-0-5s12-0-3p0-3p0-|-0-0-0-3p0-0-0-5s12-0-3p0-3p0-|
|-0-0-0-3p0-0-0-5s12-0-3p0-3p0-|-0-0-0-3p0-0-0-5s12-0-3p0-3p0-|
|-0-0-0-3p0-0-0-5s12-0-3p0-3p0-|-0-0-0-3p0-0-0-5s12-0-3p0-3p0-|
|-0-0-0-----0-0-5s12-0---------|-0-0-0-----0-0-5s12-0---------|


 3rd Verse
    C5
  E E S E S S S S S +S  S E       E E S E S S S S S +S  S E
|-------------------------------|-------------------------------|
|-------------------------------|-------------------------------|
|-------------------------------|-------------------------------|
|-------------------------------|-------------------------------|
|-0-0-0-0-0-0-0-0-0-(0)-0-------|-0-0-0-0-0-0-0-0-0-(0)-0-------|
|-0-0-0-0-0-0-0-0-0-(0)---3b3.5-|-0-0-0-0-0-0-0-0-0-(0)---3b3.5-|


  E S S S S S S S S S S S S E
|----------------------------------|
|----------------------------------|
|----------------------------------|
|----------------------------------|
|-0-0-0-0-0-0-0-0-0-0-0-0-0--------|
|-0-0-0-0-0-0-0-0-0-0-0-0-0-3b3.5--|


    Fsus4
  E E S S S S +E  S S S S E
|-------------------------------|
|-------------------------------|
|-------1-1-1-(1)-1-1-----------|
|---0-0-0-0-0-(0)-0-0-----------|
|---3-3-3-3-3-(3)-3-3-3p0-------|
|-0-0-0-0-0-0-(0)-0-0-----3b3.5-|


  E E S E S E S S S S E       E E S S S S E E S S S S
|---------------------------|-------------------------|
|---------------------------|-------------------------|
|-----1-1-1-1-1-1-----------|-------------0-0-0-0-----|
|-----0-0-0-0-0-0-----------|---------4p0-0-0-0-0-----|
|-0-3-3-3-3-3-3-3-3p0-------|-0-3-0-0-----0-0-0-0-3p0-|
|-0-0-0-0-0-0-0-0-----3b3.5-|-0-0-0-0-----0-0-0-0-----|


  C                                               N.C.(C)
  E E S S S S E S S +S  S E   E S S S S E E S S S S S S
|---------------------------|---------------------------|
|---------------------------|---------------------------|
|-------------0-------------|-0-0-0-0-0-0-0-0-0---------|
|---0-0-0-0-0-0-0-0-(0)-0-0-|-0-0-0-0-0-0-0-0-0-3p0-0-3p|
|-0-0-0-0-3-3-0-0-0-(0)-0-3-|-0-0-0-0-0-0-0-0-0---------|
|-0-0-0-0-0-0-0-0-0-(0)-0-0-|-0-0-0-0-0-0-0-0-0---------|


  S S S S S S S S S S S S S S S S
|----------------------------------|
|----------------------------------|
|----------------------------------|
|-0-0-3p0-0-3p0-0-3p0-0-3p0-0-3-0--|
|----------------------------------|
|----------------------------------|


    N.C.(C)                   N.C.(Gm)
                                    |----6----|
  S S S S S S S S S S S S S S S S   S S S S S S S S S S e S S E     E
|---------------------------------|-----------------------------------|
|---------------------------------|-----------------------------------|
|---------------------------------|-----------------------------------|
|-0-3p0-0-3p0-0-3p0-0-3p0-0-------|-----------------------------------|
|---------------------------3p0-0-|-0-0-0-0-0-0-0-0-------0-0-------0-|
|---------------------------------|-----------------3-3-5-0-0-3b3.5-0-|


  FsCs4
  E E S S S S S S S S a  E. S   E E S S E S S S S S S S S
|---------------------5s12--0-|----------------------------|
|---------------------5s12--0-|----------------------------|
|-1-0-0-0-0-0---------5s12--0-|-0-0-0-0-0------------------|
|-0-0-0-0-0-0-3p0-----5s12--0-|-0-0-0-0-0-3p0-0-3p0-0-3p0--|
|-3-0-0-0-0-0-----0-0-5s12--0-|-0-0-0-0-0------------------|
|-0-0-0-0-0-0-----0-0-5s12--0-|-0-0-0-0-0------------------|


  C
  E S S E S S S S S S S S S S   E E S S S S S S S S S S S S
|-----------------------------|-----------------------------|
|-----------------------------|-----------------------------|
|-0-0-0-0-0-0-0-0-0-0---------|---0-0-0-0-0-----------------|
|-0-0-0-0-0-0-0-0-0-0-5p3-3p0-|---0-0-0-0-0-3p0-0-----------|
|-0-0-0-0-0-0-0-0-0-0---------|-0-0-0-0-0-0-------3p0-0-0-3-|
|-0-0-0-0-0-0-0-0-0-0---------|-0-0-0-0-0-0-----------------|


 Pre-Verse
  C                           Eb    C
  E E S S S S  E  S  S  E E   E S S Q  E S S E E
|-----------5S12-12-12-12S0-|-3-5s3----0-0-0-0-0-|
|-----------5S12-12-12-12S0-|-3-5s3----0-0-0-0-0-|
|---0-0-0-0-5S12-12-12-12S0-|-3-5s3-0--0-0-0-0-0-|
|---0-0-0-0-5S12-12-12-12S0-|-3-5s3-0--0-0-0-0-0-|
|-0-0-0-0-0-5S12-12-12-12S0-|-3-5s3-0--0-0-0-0-0-|
|-0-0-0-0-0-5S12-12-12-12S0-|-3-5s3-0--0-0-0-0-0-|


  C             F           C   G           C   F           C   G
  S S S S S S S S +S  S S S E S S   S S S S E S S +S  S S S E S S
|-0-0-0-0-0-0-3s5-(5)-5-5s3-0-5s7-|-7-7-7s5-0-3s5-(5)-5-5s3-0-5s7-|
|-0-0-0-0-0-0-3s5-(5)-5-5s3-0-5s7-|-7-7-7s5-0-3s5-(5)-5-5s3-0-5s7-|
|-0-0-0-0-0-0-3s5-(5)-5-5s3-0-5s7-|-7-7-7s5-0-3s5-(5)-5-5s3-0-5s7-|
|-0-0-0-0-0-0-3s5-(5)-5-5s3-0-5s7-|-7-7-7s5-0-3s5-(5)-5-5s3-0-5s7-|
|-0-0-0-0-0-0-3s5-(5)-5-5s3-0-5s7-|-7-7-7s5-0-3s5-(5)-5-5s3-0-5s7-|
|-0-0-0-0-0-0-3s5-(5)-5-5s3-0-5s7-|-7-7-7s5-0-3s5-(5)-5-5s3-0-5s7-|


  G         Bb                              C               EbC           D
 5/4                                       4/4
  S S S S S  E S  E S  S S S  S S S  S  E   E S S S S S S S S S S +S  S S S
|-7-7-7s5-9s10-9s10-9s10-9-9s10-9-9s10----|---0-0-0-0-0-0-2s3-0-0-(0)-0-3s2-|
|-7-7-7s5-9s10-9s10-9s10-9-9s10-9-9s10----|---0-0-0-0-0-0-2s3-0-0-(0)-0-3s2-|
|-7-7-7s5-9s10-9s10-9s10-9-9s10-9-9s10-10S|=0-0-0-0-0-0-0-2s3-0-0-(0)-0-3s2-|
|-7-7-7s5------------------------------10S|=0-0-0-0-0-0-0-2s3-0-0-(0)-0-3s2-|
|-7-7-7s5------------------------------10S|=0-0-0-0-0-0-0-2s3-0-0-(0)-0-3s2-|
|-7-7-7s5------------------------------10S|=0-0-0-0-0-0-0-2s3-0-0-(0)-0-3s2-|


  C                              D   C                                D
  E S S S S S S S  S S S +S  S S S   E S S +S  S S S S  S S S +S  S S S
|-0-0-0-0-0-0-0-5s12-0-0-(0)-0-3s2-|-0-0-0-(0)-0-0-0-5s12-0-0-(0)-0-3s2--|
|-0-0-0-0-0-0-0-5s12-0-0-(0)-0-3s2-|-0-0-0-(0)-0-0-0-5s12-0-0-(0)-0-3s2--|
|-0-0-0-0-0-0-0-5s12-0-0-(0)-0-3s2-|-0-0-0-(0)-0-0-0-5s12-0-0-(0)-0-3s2--|
|-0-0-0-0-0-0-0-5s12-0-0-(0)-0-3s2-|-0-0-0-(0)-0-0-0-5s12-0-0-(0)-0-3s2--|
|-0-0-0-0-0-0-0-5s12-0-0-(0)-0-3s2-|-0-0-0-(0)-0-0-0-5s12-0-0-(0)-0-3s2--|
|-0-0-0-0-0-0-0-5s12-0-0-(0)-0-3s2-|-0-0-0-(0)-0-0-0-5s12-0-0-(0)-0-3s2--|


 4th Verse
  C                          G     C
  E E S S S S S  S S S +S  S E a   E S S S S S S S  S S S +S  S E a
|---0-0-0-0-0-5s12-0-0-(0)-0-7s2-|---0-0-0-0-0-0-5s12---------------|
|---0-0-0-0-0-5s12-0-0-(0)-0-7s2-|---0-0-0-0-0-0-5s12---------------|
|-0-0-0-0-0-0-5s12-0-0-(0)-0-7s2-|---0-0-0-0-0-0-5s12---------------|
|-0-0-0-0-0-0-5s12-0-0-(0)-0-7s2-|---0-0-0-0-0-0-5s12---------------|
|-0-0-0-0-0-0-5s12-0-0-(0)-0-7s2-|---0-0-0-0-0-0-5s12-0-0-(0)-0-----|
|-0-0-0-0-0-0-5s12-0-0-(0)-0-7s2-|-0-0-0-0-0-0-0-5s12-0-0-(0)-0-9s5-|


  C                                  C
  E S S S S S S S  S S S +S  S E a   E S S S S S S S  S S S +S  S S a S
|---0-0-0-0-0-0-5s12---------------|---0-0-0-0-0-0-5s12-0-0-(0)-0-------|
|---0-0-0-0-0-0-5s12---------------|---0-0-0-0-0-0-5s12-0-0-(0)-0-------|
|---0-0-0-0-0-0-5s12---------------|---0-0-0-0-0-0-5s12-0-0-(0)-0-------|
|---0-0-0-0-0-0-5s12---------------|---0-0-0-0-0-0-5s12-0-0-(0)-0-------|
|---0-0-0-0-0-0-5s12-0-0-(0)-0-----|---0-0-0-0-0-0-5s12-0-0-(0)-0-----0-|
|-0-0-0-0-0-0-0-5s12-0-0-(0)-0-9s5-|-0-0-0-0-0-0-0-5s12-0-0-(0)-0-9s5-0-|


    F5
  S S S S S S S S S S S S S S S S   S S S S S S S S S S S S S S e
|---------------------------------|-------------------------------|
|---------------------------------|-------------------------------|
|---------------------------------|-------------------------------|
|-3s5-5-5---5-5-5-5-5-5-5---5-5-5-|---5-5-5-5-5-5-5---5-5-5---5-5-|
|-3s5-5-5-8-5-5-5-5-5-5-5-8-5-5-5-|-7-5-5-5-5-5-5-5-8-5-5-5-7-5-5-|
|-3s5-5-5-5-5-5-5-5-5-5-5-5-5-5-5-|-5-5-5-5-5-5-5-5-5-5-5-5-5-5-5-|


  C                         D       C                         D
  E S S S S  S S S S S S  S S S S   E S S S S  S S S S S S  S S S S
|---0-0-0-5s12-0-0-0-0-0/-3s2-0-0-|---0-0-0-5s12-0-0-0-0-0/-3s2-0-0--|
|---0-0-0-5s12-0-0-0-0-0/-3s2-0-0-|---0-0-0-5s12-0-0-0-0-0/-3s2-0-0--|
|---0-0-0-5s12-0-0-0-0-0/-3s2-0-0-|---0-0-0-5s12-0-0-0-0-0/-3s2-0-0--|
|---0-0-0-5s12-0-0-0-0-0/-3s2-0-0-|---0-0-0-5s12-0-0-0-0-0/-3s2-0-0--|
|-0-0-0-0-5s12-0-0-0-0-0/-3s2-0-0-|-0-0-0-0-5s12-0-0-0-0-0/-3s2-0-0--|
|-0-0-0-0-5s12-0-0-0-0-0/-3s2-0-0-|-0-0-0-0-5s12-0-0-0-0-0/-3s2-0-0--|


    G5                              F5                  C Eb
  S S S S S S S S E S S S S S S   E S S S S S S E E +S  S E
|-------------------------------|---------------------------|
|-------------------------------|---------------------------|
|-------------------------------|---------------------------|
|-5s7-7-7---------7-7-7-7-7-7-7-|-5-5-5-5-5-5-5-5-3-(3)-0-3-|
|-5s7-7-7-9-9-9-9-7-7-7-7-7-7-7-|-5-5-5-5-5-5-5-5-3-(3)-0-3-|
|-5s7-7-7-7-7-7-7-7-7-7-7-7-7-7-|-5-5-5-5-5-5-5-5-3-(3)-0-3-|


    C5  EbF C                        Eb    C
  E S S E E S S S S S S S S    E S S E S S E S S E a  E
|-------------------------0s|=12-----------0-0-0-0-5s12-|
|-------------------------0s|=12-----------0-0-0-0-5s12-|
|-------------------------0s|=12-----------0-0-0-0-5s12-|
|-0-0-0-3-5-0-0-0-0-0-0-0-0s|=12-0-0-3S5s3-0-0-0-0-5s12-|
|-0-0-0-3-5-0-0-0-0-0-0-0-0s|=12-0-0-3S5s3-0-0-0-0-5s12-|
|-0-0-0-3-5-0-0-0-0-0-0-0-0s|=12-0-0-3S5s3-0-0-0-0-5s12-|


 Outro
  C      Eb    C                            F  EbC
   +E  E E S S E S  S  +S   S  E    E a S S E  E E E  S  S  E
|-(12)---------0-5s12-(12)-12-12-|-12s7-0-0-5\-3--------12----|
|-(12)---------0-5s12-(12)----12-|-12s7-0-0-5\-3-----------12-|
|-(12)---------0-5s12-(12)-------|------0-0-5\-3-0-8s12-------|
|-(12)-0-3S5s3-0-5s12-(12)-------|------0-0-5\-3-0------------|
|-(12)-0-3S5s3-0-5s12-(12)-------|------0-0-5\-3-0------------|
|-(12)-0-3S5s3-0-5s12-(12)-------|------0-0-5\-3-0------------|


  C        Eb F C                       Eb    C F C
   E a S S E  E E a  E E  a  E    E a S S +S  S E E  a  S S +S  S  E
|----------3/-5-0-9s14---------|----------------5-0-10s15-0-(0)-0------|
|-12s0-----3/-5-0------0-10s12-|----------------5-0---------------10s==|
|-12s0-----3/-5-0--------------|-12s8-0-3-(3)-0-5-0--------------------|
|------0-0-3/-5-0--------------|------0-3-(3)-0-5-0--------------------|
|------0-0-3/-5-0--------------|--------3-(3)-0-5-0--------------------|
|------0-0-3/-5-0--------------|--------3-(3)-0-5-0--------------------|


                           H.=H                    (s8=8)
         F C          Bb   C   Bb C       Bb  C                  CmajC
                                                    5/4
   E E E E E S a  S E  E    Q   E  E  +E    E   Q      Q  Q   Q   Q   Q
|--------------5s12-0----|-------------------------|-!12S=0--!0------^0---*|
|-12-0---------5s12-0-10S|=12--10-12-(12)-^10-^12--|-!12S=0--!0--^0--^0---*|
|------3s5-0---5s12-0-10S|=12--10-12-(12)-^10-^12--|-!12S=0--!0--^7--^0---*|
|------3s5-0---5s12-0-10S|=12--10-12-(12)-^10-^12--|-!12S=0--!0--^0--^0---*|
|------3s5-0-0-5s12-0----|-------------------------|-!12S=0--!0--^5--^0---*|
|------3s5-0-0-5s12-0----|-------------------------|-!12S=0--!0--^0--^0---*|


Duration Legend
---------------
W - whole; H - half; Q - quarter; E - 8th; S - 16th; T - 32nd; X - 64th; a - acciaccatura
+ - note tied to previous; . - note dotted; .. - note double dotted
Uncapitalized letters represent notes that are staccato (1/2 duration)
Irregular groupings are notated above the duration line
Duration letters will always appear directly above the note/fret number it represents the
duration for.  Duration letters with no fret number below them represent rests.  Multi-
bar rests are notated in the form Wxn, where n is the number of bars to rest for.  Low
melody durations appear below the staff

Tablature Legend
----------------
 h   - hammer-on
 p   - pull-off
 b   - bend
 pb  - pre-bend
 r   - bend release (if no number after the r, then release immediately)
 /\  - slide into or out of (from/to "nowhere")
 s   - legato slide
 S   - shift slide
  - natural harmonic
[n]  - artificial harmonic
n(n) - tapped harmonic
 ~   - vibrato
 tr  - trill
 T   - tap
 TP  - trem. picking
 PM  - palm muting
\n/  - tremolo bar dip; n = amount to dip
 \n  - tremolo bar down
 n/  - tremolo bar up
/n\  - tremolo bar inverted dip
 =   - hold bend; also acts as connecting device for hammers/pulls
 <>  - volume swell (louder/softer)
 x   - on rhythm slash represents muted slash
 o   - on rhythm slash represents single note slash

Misc Legend
-----------
 |  - bar
||  - double bar
||o - repeat start
o|| - repeat end
*|  - double bar (ending)
 :  - bar (freetime)
 $  - Segno
 &  - Coda
Tempo markers -  = BPM(8/16=s8/s16), where s8 = swing 8ths, s16 = swing 16ths


***************************************************************************************
* Generated using Power Tab Editor by Brad Larsen - http://powertab.guitarnetwork.org *
***************************************************************************************
Tap to rate this tab
 
# A B C D E F G H I J K L M N O P Q R S T U V W X Y Z