Song name
# A B C D E F G H I J K L M N O P Q R S T U V W X Y Z

Ledoux Chris - Tougher Than The Rest tab

--------------------------------------------------------
	TOUGHER THAN THE REST INTRO- Chris Ledoux
--------------------------------------------------------
Tabbed by: Mike Weinheimer
Email:

Tuning:

e|----5h6--6--6--5- hold |5h6--6--6-/-8-8-------|
B|----6----6--6--6-      |6----6--6-/-8-8--8-8--|
G|-5-------------5-      |5----------------7-7--|
D|-----------------------|----------------------|
A|-----------------------|----------------------|
E|-----------------------|----------------------|

e|----13----13-12-12----------------|-0--0----|
B|-13----13-----------13-13----13-\-|-1--1----|
G|--------------------------12-12-\-|-0--0----|
D|----------------------------------|-2--2----|
A|----------------------------------|-3--3----|
E|--------------------------------------------|


| /  slide up
| \  slide down
| h  hammer-on
| p  pull-off
| ~  vibrato
| +  harmonic
| x  Mute note
==========================================================
Tap to rate this tab
# A B C D E F G H I J K L M N O P Q R S T U V W X Y Z