Song name
# A B C D E F G H I J K L M N O P Q R S T U V W X Y Z

Lee Alvin - Going Home tab

Help us improve GuitareTab! Take a short survey!
From: sbander@aol.com (SBander)
Subject: Opening lick to Going Home by Alvin Lee  cc: Alvin Lee

Going Home by Alvin Lee from sbander@aol.com.  


		I'm Going Home - Ten Years After
		Transcrption attempted by Steve Bander
					[Note 1]

E	-----------------------------------------------5-----
B	-------------------------------------------5-7-------
G	----5-7-8-7-5-7-5---7---5-7-5----------4-5-----------
D	--7---------------7---7-------7-5-7--7---------------
A	-----------------------------------------------------
E	-----------------------------------------------------


	----8-10-11-10-8-10-8----8---------------------------
	[10]------------------10---10-8-10-------------------
	-----------------------------------------------------
	-----------------------------------------------------
	-----------------------------------------------------
	-----------------------------------------------------


	-8-11-8-10-8-----8-11-8-10--8-----8-11-8-10-8--------
	-------------10----------------10-------------10-----
	-----------------------------------------------------
	-----------------------------------------------------
	-----------------------------------------------------
	-----------------------------------------------------

	[Note 2]
	-------------------5--------------------------------
	----------------------------------------------------
	--9-8-5-7-5----(7)---8-7-5-7-5---5------------------
	------------7------------------7---7-5-7------------
	----------------------------------------------------
	----------------------------------------------------


	---------------------------5-------------------5----
	-------------------------------------------5-7------
	---5-7-8-7-5-7-5---5---(7)---8-7-5-----5-6----------
	-7---------------7-----------------5-5--------------
	---------------------7------------------------------
	----------------------------------------------------


	-----------------------------------------------------
	-8---------------------------------------------------
	---8-7-5-6-------------------------------------------
	-----------5-----------------------------------------
	-------------7-7-------------------------------------
	-----------------------------------------------------


	GENERAL NOTES:
	- () Indicates full bend
	- [] Indicates slide, in this case with 3rd finger

	SPECIFIC NOTES:
	NOTE 1: This is one of Alvin Lee's trademark licks.
	After playing the first note (A) with the 3rd finger 
	lay the 1st finger flat across the three treble strings 
	slide then hammer the next notes.  It is a difficult 
	lick to master but well worth the practice required.  
	Rent the movie Woodstock and you can catch a glance of 
	the fingering.

	NOTE 2: After playing the second note of this lick slide 
	down with the first finger to the 5th fret on the third string.
Related for Going Home tab