Song name
# A B C D E F G H I J K L M N O P Q R S T U V W X Y Z

Lee Dorsey - Give It Up tab

                   Lee Dorsey -  Give it Up

           -------------------------------------------|
           ------------------9---------------------6--|
           --------8------------10----------5---------|
           -----10----10--8-------------8-------6-----|
           --8----------------------------------------|
           -------------------------------------------|
 -

           -------------------------------------------|
           ------------------9------------------------|
           --------8------------10----------5---------|
           -----10----10--8-------------8-------6--3--|
           --8----------------------------------------|
           -------------------------------------------|
Tap to rate this tab
 
# A B C D E F G H I J K L M N O P Q R S T U V W X Y Z