Song name
# A B C D E F G H I J K L M N O P Q R S T U V W X Y Z

Left Front Tire - Bring You Down tab


Intro/Verse:
e-----------------------|
b-----------------------|
g--5--------------------|     2X
D--5----5----7----3--5--|
A--3----5----7----3--5--|
E-------3----5----1--3--|

Bridge:
e----------------------|
b----------------------|
g--5-------------------|     2X
D--5--5--7---3---------|
A--3--5--7---3---------|
E-----3--5---1---------|

Chorus:
e------------------------------------------------------------------------|
b------------------------------------------------------------------------|
g--9----------------9---------------------9------------------------------|
D--9----9----7------9----9----11----7--9--9----9----7------11-----9------|
A--7----9----7------7----9----11----7--9--7----9----7------11-----9------|
E-------7----5-----------7----9-----5--7-------7----5------9------7------|

Change-Up:
e---------------------------------------------------------------|
b---------------------------------------------------------------|
g--7-------------7-------------7--------------------------------|
D--7--7--9--5-5--7--7--9--5-5--7--7--9--5-5----4--------5-------|
A--5--7--9--5-5--5--7--9--5-5--5--7--9--5-5----4--------5-------|
E-----5--7--3-3-----5--7--3-3-----5--7--3-3----2--------3-------|

Interlude:
e------1--------|
b----1----------|
g--3-----3------|         8X
D---------------|
A---------------|
E---------------|

Bridge 2:
e---------------------------------------|
b---------------------------------------|
g--5------------------------------------|
D--5--------5--------7--------3----5----|          2X
A--3--------5--------7--------3----5----|
E-----------3--------5--------1----3----|

I like the changes in the rythm and tempo. Nothing is over repeated and it's actually 
pretty good for Pop Punk.

You should be able pick up on the strumming and pick slides when playing along to the 
recording. There are a couple of missing add-ons over the solo and 2 bridge tracks. I am 
still trying to figure them out.

Please enjoy!
Tap to rate this tab
# A B C D E F G H I J K L M N O P Q R S T U V W X Y Z