Song name
# A B C D E F G H I J K L M N O P Q R S T U V W X Y Z

Left Out Kid - Welcome tab

Help us improve GuitareTab! Take a short survey!
Tabbed by Jon Riley www.leftoutkid.fsnet.co.uk

 WELCOME

 This is another easy song but it has quite a few different guitar parts.
 When I recorded it I took samples of me playing and made the song up from
 that, so theres no real way of playing it properly live. I'm only gonna tab
 bits of it otherwise i'd be here all night.


 Chords -

 (A)  (E)  (F#m)  (D)           Key:
E x   12    x     10
A 12  14    9     12            / = slide
D 14  14    11    12
G 14  13    11    11
B 14  12    10    10
e x   12    9     10

  Guitar 1:


    A                E               F#m             D
 E|------------    ----12--12---    -----------    ----10--10---|
 A|---12--12---    -------------    ----9--9---    -------------|
 D|------------    ------14-----    -----------    ------12-----|
 G|-----14-----etc --13---------etc -----11----etc --11---------|etc
 B|-14---------    -------------    --10-------    -------------|
 e|------------    -------------    -----------    -------------|

  Guitar 2:

    A            E           Fm         C#
 E|--------------12---------------------10-------------|
 A|--12----------14----------9----------12-------------|
 D|--14----------14----------11---------12-------------|
 G|--14----------13--14/16---11---------11--12/14------|
 B|--14--15/17---12----------10--12/14--10--------14---|
 e|--------------12----------9----------10-------------|

 Thats basically it..good luck trying to play along with it though! (I can't)


 copyright belongs to Jon Riley
Related for Welcome tab