Song name
# A B C D E F G H I J K L M N O P Q R S T U V W X Y Z

Lefthanded - Debunga Wangi tab

---------------------------------------------------------------------------
			Debunga wangi - Lefthanded
---------------------------------------------------------------------------
Tabbed by: Falcongan
An ol skool Malaysian rock ballad by lefthanded. Didn’t have the song with me when i 
this.i was fooling around with my guitar and some notes reminded me of this song.
Tabbed it by memory of how the song went so timing and all may not be accurate – for 
who know this song, it should be pretty easy to figure out timing & etc. Don’t blame me if 
doesn’t sound right – either correct my tabs or check your hearing – yeaargh.rock on.
Tuning:standard

Intro & verse :
e|------------------------------------------------------------------------|
B|-----3---------3--------3-----------------------------------------------|
G|---0---0-----0---0----0---0---------------------------------------------|
D|--4-4-4-4---4-4-4-4--4-4-4-4--------------------------------------------|
A|-----------3--------5---------------------------------------------------|
E|-0----------------------------------------------------------------------|
            Sepi yang mencengkam
e|------------------------------------------------------------------------|
B|-----------------------3------------------------------------------------|
G|-----------------0-----------0------------------------------------------|
D|--------------4-----4-----4-----4---------------------------------------|
A|------------------------------------------------------------------------|
E|------------0-----------------------------------------------------------|

              saban waktu
e|------------------------------------------------------------------------|
B|-----------------------3------------------------------------------------|
G|-----------------0-----------0------------------------------------------|
D|--------------4-----4-----4-----4---------------------------------------|
A|-----------3------------------------------------------------------------|
E|------------------------------------------------------------------------|

           Membawa aku ke lembah
e|------------------------------------------------------------------------|
B|-----------------------3------------------------------------------------|
G|-----------------0-----------0------------------------------------------|
D|--------------4-----4-----4-----4---------------------------------------|
A|-----------5------------------------------------------------------------|
E|------------------------------------------------------------------------|

              berduri
e|------------------------------------------------------------------------|
B|-----------------------3------------------------------------------------|
G|-----------------0-----------0------------------------------------------|
D|--------------4-----4-----4-----4---------------------------------------|
A|------------------------------------------------------------------------|
E|------------0-----------------------------------------------------------|

Chorus :
         Siapakah         kan datang
e|------------------------------------------------------------------------|
B|------------------------------------------------------------------------|
G|------------------------------------------------------------------------|
D|-----5---55---5-7---77--7-2---22---2--2--22---2-------------------------|
A|-----3---33---3-5---55--5-2---22---2--2--22---2-------------------------|
E|--------------------------0---00---0--0--00---0-------------------------|
         Menyudi       kan  dirinya
e|------------------------------------------------------------------------|
B|------------------------------------------------------------------------|
G|------------------------------------------------------------------------|
D|-----5---55---5-7---77--7-2---22---2--2--22---2-------------------------|
A|-----3---33---3-5---55--5-2---22---2--2--22---2-------------------------|
E|--------------------------0---00---0--0--00---0-------------------------|

      Menghulur tangan      Membawa ku  naik      K-drtan yg pnh dbnga wangi
e|------------------------------------------------------------------------|
B|------------------------------------------------------------------------|
G|------------------------------------------------------------------------|
D|-5---55---5-7---77----------------------2---7--5----55------7---77-----2|
A|-3---33---3-5---55------------5----4----2---5--3----33------5---55-----2|
E|------------------------------3----2----0------------------------------0|

    Ku....  cari.....     ku  mencari Pada daratan yang penuh debunga wangi
e|------------------------------------------------------------------------|
B|------------------------------------------------------------------------|
G|------------------------------------------------------------------------|
D|--2---2-2---7---7-7----------------2---7--5----55-------7-----77-------2|
A|--2---2-2---5---5-5-----5-----4----2---5--3----33-------5-----55-------2|
E|--0---0-0---------------3-----2----0-----------------------------------0|

Sepi yang mencengkam saban waktu
Membawa aku ke lembah berduri
Yang aku sendiri tidak pasti
Apakah aku dapat mengharungi

Siapakah kan datang
Menyudikan dirinya
Menghulur tangan
Membawa ku naik
Ke daratan yang penuh
Debunga wangi

Ku cari ku mencari
Pada daratan yang penuh
Debunga wangi
Tap to rate this tab
 
# A B C D E F G H I J K L M N O P Q R S T U V W X Y Z