Song name
# A B C D E F G H I J K L M N O P Q R S T U V W X Y Z

Legacy - Demons tab

-----------------------------------------------------------------
Demons - Legacy
-----------------------------------------------------------------
Mail: mario1@live.com.au
Length: 3:07

Tuning: Drop C (CGCFAD)


e|---------------------------------------------------------------|
B|---------------------------------------------------------------|
G|---------------------------------------------------------------| X4
D|--0--------0---------------------------------------------------|
A|--0--------0---------------------------------------------------|
E|--0--------0---------------------------------------------------|

e|-------------------------------------------------------15----|
B|--------------------------------------------------13-----13--|
G|-----------------------------------------14------------------|
D|----------------------------------15---------15--------------|
A|--12----12-13---13-15-17-----17------------------------------|
E|-------------------------------------------------------------|

e|----------------------------------------------------------------------------------------------|
B|----------------------------------------------------------------------------------------------|
G|----------------------------------------------------------------------------------------------|
D|-----------------------------------12121212-10101010-14141414-12121212-1515151515-14141414-17*|
A|--12----12-13----13-15-17---------------------------------------------------------------------|
E|----------------------------------------------------------------------------------------------|

e|-------------------------------------------------------15----|
B|--------------------------------------------------13-----13--|
G|-----------------------------------------14------------------|
D|----------------------------------15---------15--------------|
A|--12----12-13---13-15-17-----17------------------------------|
E|-------------------------------------------------------------|

e|----------------------------------------------------------------------------------------------|
B|----------------------------------------------------------------------------------------------|
G|----------------------------------------------------------------------------------------------|
D|-----------------------------------12121212-10101010-14141414-12121212-1515151515-14141414-17*|
A|--12----12-13----13-15-17---------------------------------------------------------------------|
E|----------------------------------------------------------------------------------------------|

Quickly sweep pick the first bit
e|-----------------13h17T22^24^22p17-----T22p15-------------------20---------T22p15-----------|
B|-------------15-------------------------------------------------15-------18-----------------|
G|---------14---------------------------------------------------------------------------------|   X2
D|-----15-------------------------------------------------------------------------------------|
A|-17-----------------------------------------------------------------------------------------|
E|--------------------------------------------------------------------------------------------|

e|---------------------------------------------------------------|
B|---------------------------------------------------------------|
G|---------------------------------------------------------------|    X4
D|--12-------7-8-0-7-8-0-7-8-0-7-8-0-10--------------------------|
A|------12---------------------------------------10--------------|
E|---------------------------------------------------------------|

e|---------------------------------------------------------------|
B|---------------------------------------------------------------|
G|---------------------------------------------------------------|
D|---------------------------------------------------------------|         X2
A|--0--0--0--0--0--0-------0—-0--0--0--0--0----------------------|
E|--0--0--0--0--0--0-------0--0--0--0--0--0----------------------|
    .  .  .  .  .  .       .  .  .  .  .  .
e|---------------------------------------------------------------|
B|---------------------------------------------------------------|
G|---------------------------------------------------------------|
D|---------------------------------------------------------------|
A|--0--0--0--0--0--0-------0-—0--0--0--0--0----0000----0000------|
E|--0--0--0--0--0--0-------0--0--0--0--0--0----0000----0000------|
    .  .  .  .  .  .       .  .  .  .  .  .    ....    ....
e|---------------------------------------------------------------|
B|---------------------------------------------------------------|
G|---------------------------------------------------------------|
D|---------------------------------------------------------------|
A|--0--0--0--0--0--0-------0-—0--0--0--0--0----------------------|
E|--0--0--0--0--0--0-------0--0--0--0--0--0----------------------|
    .  .  .  .  .  .       .  .  .  .  .  .


Pre solo
e|-18---------17-------------------------------------------------|
B|-----15-15----15-15-15\13h15—T18p15-T17p15-T20p15-T22----------|
G|---------------------------------------------------------------|
D|---------------------------------------------------------------| X4
A|---------------------------------------------------------------|
E|---------------------------------------------------------------|

solo
e|---------------------------------------------------------------|
B|--------------17---13----15------------------------------------|
G|----------14----------14-----12^-------------------------------|
D|------15-------------------------------------------------------|
A|--17-----------------------------------------------------------|
E|---------------------------------------------------------------|

e|--------------------------------------------------------------|
B|--------------------------------------------------------------|
G|---------------8----------------------------------------------|
D|--8h10h12---12p10p8h10p8--------------------------------------| X3
A|--------------------------------------------------------------|
E|--------------------------------------------------------------|

e|----------------------------------|
B|----------------------------------|
G|----------------------------------|
D|--12p8h10h12p8h10h12--------------|
A|----------------------------------|
E|----------------------------------|

e|------------------------------|
B|---10-------------------------|
G|---12^14----10----------------|
D|-------------------12~--------|
A|------------------------------|
E|------------------------------|

e|-20p18p17--------------------------------------------------------------|
B|---------------20p18p17h1817\15h17p15\13h15p13T20p13-------------------|
G|-----------------------------------------------------------------------|
D|-----------------------------------------------------------------------|
A|-----------------------------------------------------------------------|
E|-----------------------------------------------------------------------|

e|-10--------------------------|
B|-13^15-----10T20~------------|
G|-----------------------------|
D|-----------------------------|
A|-----------------------------|
E|-----------------------------|

e|---------------------------------------------------------------|
B|---------------------------------------------------------------|
G|--------------14h15p14------------------14h15p14---------------|
D|----------15---------------15----------15---------------15-----|
A|-15h17-----------------------17-15h17-----------------------17-|
E|---------------------------------------------------------------|

e|--------------------------------------------------------------------------------------------|
B|------------------------------------------------------13h15p13h15p13-----17\----------------|
G|-14h15p14h15p14—15h17p15h17p15--------------------------------------------------------------|
D|--------------------------------------------------------------------------------------------|
A|--------------------------------------------------------------------------------------------|
E|--------------------------------------------------------------------------------------------|

e|-------------------------------------------------------------------------------|
B|-------------------------------------------------------------------------------|
G|-------------------------------------------------------------------------------|
D|---T17p12p0-T15p12p0-T17p12p0-T17/19p12p0-T19p12p0-T17p12p0-T19p12p0-----------|
A|-------------------------------------------------------------------------------|
E|-------------------------------------------------------------------------------|


e|--------------------------------------------------------------------------------|
B|--------------------------------------------------------------------------------|
G|----------------------------------------------------------------------T19~------|
D|-T19/20p12p0-T20p12p0-T19p12p0-T20p12p0-T20/22p12p0-T20p12p0-T22p12p0-----------|
A|--------------------------------------------------------------------------------|
E|--------------------------------------------------------------------------------|


e|-----------------13h17T22^24^22p17-----T22p15-------------------20---------T22p15-----|
B|-------------15----------------------------------------------15-------18--------------|
G|---------14---------------------------------------------------------------------------|   X2
D|-----15-------------------------------------------------------------------------------|
A|-17-----------------------------------------------------------------------------------|
E|--------------------------------------------------------------------------------------|


e|-----------------13h17T22^24^22p17-----T22p15--------------------20---------T22p15--|
B|-------------15-----------------------------------------------15-------18-----------|
G|---------14-------------------------------------------------------------------------|
D|-----15-----------------------------------------------------------------------------|
A|-17---------------------------------------------------------------------------------|
E|------------------------------------------------------------------------------------|

e|-T18p17p15p13 X4-T20p17p15p12 X4-T17p15p13p12-X4 T20p15p13p12-X4---------------|
B|------------------------------------------------------------------------15~----|
G|-------------------------------------------------------------------------------|
D|-------------------------------------------------------------------------------|
A|-------------------------------------------------------------------------------|
E|-------------------------------------------------------------------------------|


e|---------------------------------------------------------------|
B|---------------------------------------------------------------|
G|---------------------------------------------------------------|    X4
D|--12-------7-8-0-7-8-0-7-8-0-7-8-0-10--------------------------|
A|------12---------------------------------------10--------------|
E|---------------------------------------------------------------|


e|---------------------------------------------------------------|
B|---------------------------------------------------------------|
G|---------------------------------------------------------------|
D|-0-------------------------------------------------------------|
A|-0-------------------------------------------------------------|
E|-0-------------------------------------------------------------|





| /  slide up
| \  slide do
| h  hammer-on
| p  pull-off
| ~  vibrato
| +  harmonic
| x  Mute note
|*artificial harmonic
|. Palm mute
|T tap
Tap to rate this tab
# A B C D E F G H I J K L M N O P Q R S T U V W X Y Z