Song name
# A B C D E F G H I J K L M N O P Q R S T U V W X Y Z

Legend Of Zelda - Song Of Storms tab

E[----------------------------------------]
B[----------------------------------------]
G[----------------------------------------]
D[--2--2--4-5-4-5-4-0---------------------]
A[-2--2--------------2--2---0-2--2----0---]
E[0--0-------------------0-3------0-3--2--]

E[------------------------------------]
B[------------------------------------]
G[------------------------------------]
D[---2--2--4-5-4-5-4-0----------------]
A[--2--2---------------2--2---0-2--2--]
E[-0--0--------------------0-3------0-]

Tap to rate this tab
# A B C D E F G H I J K L M N O P Q R S T U V W X Y Z