Song name
# A B C D E F G H I J K L M N O P Q R S T U V W X Y Z

Legends Never Die - Elixer tab

this is elixer, the second recording of it so it is minus the solo (this is the
correct version because i've yet to see one that's entirely correct)

h=hammer on
p=pull off
/=slide up
\=slide down
*=harmonic
x=palm mute
b=bend
()=note you bend to
r=bend down


Main Riff:
------------------------------------------------------------------------|
------------------------------------------------------------------------|
---------------------------------------------5---------------7----------|
-----------------------------------------5-----5--5------7-----7-5h7----|
-----9-10-----9-5-----9-10-----9-5---3-3---3-----3---5-5---5------------|
-0-0------0-0-----0-0------0-0------------------------------------------|

second riff:
-------------------------------------------------------------------|
-------------------------------------------------------------------|
-------------------------------------------------------------------|
---------5h7-5h7-----5h7-5h7-5-------------------------------------|
---------5h7-5h7-----5h7-5h7-5----------5---------------5----------|
-0-0-0-0---------0-0------------0-5-7-8---8-7-5-0-5-7-8---8-7-5----|

third riff:
-------------------------------------------------------------------|
-------------------------------------------------------------------|
---------------------------------------------5-5-5-5-7-7-7-6/7-----|
---------------------------------------------5-5-5-5-7-7-7-6/7-----|
-----9b(10)-----9b(10)----9b(10)-----9b(10)--3-3-3-3-5-5-5-4/5-----|
-0-0-------0-0--------0-0--------0-0-------------------------------|

during bass solo:
------------------------------------------------------------------|
------------------------------------------------------------------|
-9-9-9-9-9-9-9-9-9-9-9-9-9-9-9-9-5-5-5-5-5-5-5-5-5-7-7-7-6/7------|
-9-9-9-9-9-9-9-9-9-9-9-9-9-9-9-9-5-5-5-5-5-5-5-5-5-7-7-7-6/7------|
-7-7-7-7-7-7-7-7-7-7-7-7-7-7-7-7-3-3-3-3-3-3-3-3-3-5-5-5-4/5------|
-0-0-0-0-0-0-0-0-0-0-0-0-0-0-0-0----------------------------------|
 x x x x x x x x x x x x x x x x x x x x x x x x x x x x

-----------------------------------------------------------*12----|
-----------------------------------------------------------*12----|
-9-9-9-9-9-9-9-9-9-9-9-9-9-9-9-9-5-5-5-5-5-5-5-5-5-7-7-7---*12----|
-9-9-9-9-9-9-9-9-9-9-9-9-9-9-9-9-5-5-5-5-5-5-5-5-5-7-7-7----------|
-7-7-7-7-7-7-7-7-7-7-7-7-7-7-7-7-3-3-3-3-3-3-3-3-3-5-5-5----------|
-0-0-0-0-0-0-0-0-0-0-0-0-0-0-0-0----------------------------------|
 x x x x x x x x x x x x x x x x x x x x x x x x x x x x


SECOND HALF OF THE SONG:

first riff
------------------------------------------------------------------------|
------------------------------------------------------------------------|
------------------------------------------------------------------------|
----6-5-------5---------------------------------------------------------|
--3-----6-5-6---6------6/8-----5/6--------------------------------------|
-------------------4-4-----3-3------------------------------------------|

second riff (all palm muted)
------------------------------------------------------------------------|
------------------------------------------------------------------------|
-----5------8-----------------------------------------------------------|
---5------8-------6------5----------------------------------------------|
-3------6-------6------5------------------------------------------------|
--------------4------3--------------------------------------------------|

last riff
-3-3-3-3-3-3-3-3-4-4-4-4-3-3-3-3----------------------------------------|
-3-3-3-3-3-3-3-3-4-4-4-4-3-3-3-3----------------------------------------|
-5-5-5-5-5-5-5-5-4-4-4-4-3-3-3-3----------------------------------------|
-5-5-5-5-5-5-5-5-6-6-6-6-5-5-5-5----------------------------------------|
-3-3-3-3-3-3-3-3-6-6-6-6-5-5-5-5----------------------------------------|
-3-3-3-3-3-3-3-3-4-4-4-4-3-3-3-3----------------------------------------|
Tap to rate this tab
# A B C D E F G H I J K L M N O P Q R S T U V W X Y Z