Song name
# A B C D E F G H I J K L M N O P Q R S T U V W X Y Z

Legs Diamond - Woman tab

****************************************************************************
Legs Diamond's Official Website

http://legsdiamond.com/
****************************************************************************

Tabbed By:BOBTHEWEAZEL
Email:captain-jesus@hotmail.com

Tuning:Standard

The Following Was Tabbed By Paul Lidel (Dirty Looks, Dangerous Toys, Broken
Teeth, & Adrenaline Factor). Also, This Is Nearly (Minor Changes) The Exact
Tab Being Distributed By Harold (AKA Hoppin)-Out At Outback Bar & Lost Boys
Ranch In Texas- Through Legs Diamond's Website's Forum. The Original Tab (I
Think Harold Literally Mailed Me The Original)Is 15 Pages Long, And I Shall
Post It In All Its Glory. If You Have Any Suggestions Or The Post Contains
Any Mistakes, Let Me Know. Also, If You're From Texas And Don't Rate Or
Comment I Will Find You And Steal Your Spleen.

Note: Times Are Approximate, Words Do Not Correspond With Notes.

Note: Rhythm Figure Number 1 As Seen Below Will Be The Initial And End   
      Chord Strummed Multiple Times With First And Last Chords Of Figure 
      Up-Strummed And Chords In Between Alternatingly Up/Down Strummed.

Also: You Can E-Mail Me If You Think Some Thing Should Be Changed Or If You
      Might Know The Fills At The End, I Don't Mind Proper Additions.

ACOUSTIC INTRO

00:06
e|-------0---0-----------0-----0-------0-------0-------0-------0---|
b|---------0-----------0---0-----0-------0-------0-------0-------0-|
g|-----0-------------0-------0-------------------------------------|
d|-2/4---------5\4-2-----------------0-------0-------0-------0-----|
a|---------------------------------3-------2-------3-------2-------|
E|-----------------------------------------------------------------|

00:13
e|-------0---------------0-----0-------0-------0-------0-------0---|
b|-----0---0-----------0---0-----0-------0-------0-------0-------0-|
g|---0-------0-------0-------0-------------------------------------|
d|-4-----------5-4-2-----------------0-------0-------0-------0-----|
a|---------------------------------3-------2-------3-------2-------|
E|-----------------------------------------------------------------|

00:19
e|-------0---------------0-----0-------0-------0-------0-------0---|
b|-----0---0-----------0---0-----0-------0-------0-------0-------0-|
g|---0-------0-------0-------0-------------------------------------|
d|-4-----------5-4-2-----------------0-------0-------0-------0-----|
a|---------------------------------3-------2-------3-------2-------|
E|-----------------------------------------------------------------|

00:26
e|-----0-0---------------0-0-0-0-------------|
b|-----0---0---------0---0-0-0---0---------0-|
g|-----0-----0-----0-----0-0-0-----0---------|
d|---2-2-------2/4-------2-2-2-----------4---|
a|---2-2---------------3-3-3-3-------3/5-----|
E|-0---0-------------------------------------|

00:33
e|-----0-0---------------0-0-0-0-------------|
b|-----0---0---------0---0-0-0---0---------0-|
g|-----0-----0-----0-----0-0-0-----0---------|
d|---2-2-------2/4-------2-2-2-----------4---|
a|---2-2---------------3-3-3-3-------3/5-----|
E|-0---0-------------------------------------|

00:40
e|-----0-0---------------0-----0-0-----0---0-|
b|-----0---0---------0-----0---0---0---0---0-|
g|-----0-----0-----0---------0-0-----0-0-----|
d|-----2-------2/4-------------2-------2-----|
a|-----2---------------3-------3-------3-3---|
E|-0-0-0-------------------------------------|

00:46
e|-----0----------------------------2-2-----2-|
b|---------0-----------0------------0---0---0-|
g|---0---0---------0-----0----------0-----0-0-|
d|---------------4---4--------2-----2-------2-|
a|-3---------3/5-----------5\-------2-------2-|
E|------------------------------0-0-0-------0-|

00:53
e|-----0----------------------------2-2-----2-|
b|---------0-----------0------------0---0---0-|
g|---0---0---------0-----0----------0-----0-0-|
d|---------------4---4--------2-----2-------2-|
a|-3---------3/5-----------5\-------2-------2-|
E|------------------------------0-0-0-------0-|

00:59
e|-----0-----------0-----0-----|
b|---------0-------------------|
g|---0---0-----------0-----0---|
d|---------------4-----4-------|
a|-3---------3/5-------------5-|
E|-----------------------------|

01:03
e|-------0---0-----------0-----0-------0-------0-------0-------0---|
b|-----0---0-----------0---0-----0---------------------------------|
g|-------------------0-------0-------------------------------------|
d|-3/4---------5\4-2-----------------0---0---0---0---0---0---0---0-|
a|---------------------------------3-------2-------3-------2-------|
E|-----------------------------------------------------------------|

01:09
e|-----0---0---0-----------0-----0---|
b|-----------------------0---0-----0-|
g|---0---0---0---------0-------0-----|
d|-4-------------5\4-2---------------|
a|-----------------------------------|
E|-----------------------------------|

01:13
e|-----0-------0---------------0-------------------|
b|---------------------0---------------0-------0---|
g|-------------------------------------------------|
d|---0---0---0---0---0---0---0---0---0---0---0---0-|
a|-3-------2-------3-------2-------3-------2-------|
E|-------------------------------------------------|

01:18
e|-----------------0-----0-----------------------------0-------|
b|-----0-----0-------0-----0---------0-----0-----0-------------|
g|---------0---0-------0-----0---------0-----------------------|
d|---2---2-------2-------------2---2-----2---2-2---2-2---2-----|
a|-------------------------------3-------------------------3-2-|
E|-0-----------------------------------------------------------|

01:25
e|----------------------------------2---2-|
b|-0-----0-----0-----0--------------0---0-|
g|---0-----0-----0------------------0---0-|
d|-----4-----4-----4---4-5\---------2---2-|
a|----------------------------------2---2-|
E|--------------------------0-0-0-0-0-0-0-|

01:31
e|---------------------0---------------------------0---------|
b|---0-----------0-------0-------0-----0-----0-------0-------|
g|-----0---0-------0-------0-------0-----0-----0-------0-----|
d|-----------2-----------------------------------------------|
a|-------2-----2-----2-------2-3-----3-----3-----3-------3-5-|
E|-0---------------------------------------------------------|

01:38
e|-------0---------------------------2---2-|
b|-0---------------------------------0---0-|
g|---------0---0-----0---------------0---0-|
d|---4-4-----4---4-----4-5-2---------2---2-|
a|-----------------5-----------------2---2-|
E|---------------------2-3-0-0-0-0-0-0-0-0-|


VERSE #1 (Acoustic)

  There Is No Reason...
01:45
e|---------------0---------------------------------0-------|
b|---------0-------0---0---------0-----0-----0-------0-----|
g|---0-------0-------0---0---------0-----0-----0-------0---|
d|-----2-------2-----------2-------------------------------|
a|-------2-------------------2-3-----3-----3-----3-------3-|
E|-0-------------------------------------------------------|
  
  Grievin', Cause I've...
01:51
e|---------------0---------------------2---2-|
b|---0-----0-------0---0---------------0---0-|
g|-------------------0-----------------0---0-|
d|-----4-----4-------------------------2---2-|
a|-2-----2-----2-----------------------2---2-|
E|-----------------------2-3-0-0-0-0-0-0-0-0-|

  I Just Can't Understand...
01:58
e|---------------0---------------------------------0-------|
b|---------0-------0---0---------0-----0-----0-------0-----|
g|---0-------0-------0---0---------0-----0-----0-------0---|
d|-----2-------2-----------2-------------------------------|
a|-------2-------------------2-3-----3-----3-----3-------3-|
E|-0-------------------------------------------------------|

  Uneasy, Each And...
02:05
e|-------------------------------------2---2-|
b|---0-----0-----0---------------------0---0-|
g|-----0-----0-----0---0---------------0---0-|
d|-------4-----4-----4---4-5-2---------2---2-|
a|-5-----------------------------------2---2-|
E|-----------------------2-3-0-0-0-0-0-0-0-0-|

  Woman, I Just Can't...
02:11
e|---------------0---------------------------------0-------|
b|---------0-------0---0---------0-----0-----0-------0-----|
g|---0-------0-------0---0---------0-----0-----0-------0---|
d|-----2-------2-----------2-------------------------------|
a|-------2-------------------2-3-----3-----3-----3-------3-|
E|-0-------------------------------------------------------|

  Through It...
02:18
e|---------------0---------------------2---2-|
b|---0-----0-------0---0---------------0---0-|
g|-------------------0-----------------0---0-|
d|-----4-----4-------------------------2---2-|
a|-2-----2-----2-----------------------2---2-|
E|-----------------------2-3-0-0-0-0-0-0-0-0-|

  You Can Never...
02:24
e|---------------0---------------------------------0-------|
b|---------0-------0---0---------0-----0-----0-------0-----|
g|---0-------0-------0---0---------0-----0-----0-------0---|
d|-----2-------2-----------2-------------------------------|
a|-------2-------------------2-3-----3-----3-----3-------3-|
E|-0-------------------------------------------------------|

  And To Want You...
02:31
e|--------------------|
b|--------------------|
g|--------------------|
d|-7-X-77-X-77-XX-----|
a|-5-X-55-X-55-XX-4-5-|
E|----------------2-3-|


CHORUS #1 (Distorted)
  
  Go...
02:35
e|------------------------------------------------------------------------|
b|------------------------------------------------------------------------|
g|------------------------------------------------------------------------|
d|-----------------5-------------------------------------5-------------5-4|
a|-77777-7\5-7\5-----7-77777-7\5---------77777-7\5-7\5-----7-77777-7\5-3-2|
E|---------------7---------------7-6-5-3---------------7------------------|

  Woman...
02:48
e|------------------------------------------------------------------------|
b|------------------------------------------------------------------------|
g|------------------------------------------------------------------------|
d|-----------------5-------------------------------------5-------------5-4|
a|-77777-7\5-7\5-----7-77777-7\5---------77777-7\5-7\5-----7-77777-7\5-3-2|
E|---------------7---------------7-6-5-3---------------7------------------|

  Woman...
03:02
e|--------------------------------------------------------|
b|--------------------------------------------------------|
g|--------------------------------------------------------|
d|-9------------------------------------5-------------5-4-|
a|-7--77777-7-5---------77777-7\5-7\5-----7-77777-7\5-3-2-|
E|--------------7-6-5-3---------------7-------------------|


Verse #2 (Acoustic) *See Rhythm Fig. 1 Note Above

03:15
e|---------------------0-------------------------------------|
b|---0-----0-----0-------0-------0-----0-----0-----0---------|
g|-----0-----0-----0-------0-------0-----0-----0-----0-------|
d|-------2-----2-----2---------------2-----2-----2-----2-----|
a|---------------------------2-3-------------------------3-2-|
E|-0---------------------------------------------------------|

03:23
e|-----------------------------------2---2-|
b|-0-----0-----0-----0---------------0---0-|
g|---0-----0-----0-------------------0---0-|
d|-----4-----4-----4---4-5-----------2---2-|
a|-----------------------------------2---2-|
E|-------------------------0-0-0-0-0-0-0-0-|

  Why Is It That...
03:28
e|---0-------------0-0-------------0-0-------------0---------------2---2-|
b|---0-------------0-0-------------0-0-------------0---------------0---0-|
g|---0-------------0-0-------------0-0-------------0---------------0---0-|
d|---2-------------2-2-------------2-4-------------4-4-5-----------2---2-|
a|---2-------------2-3-------------3-2-------------2---------------2---2-|
E|-0-0-------------0-------------------------------------0-0-0-0-0-0-0-0-|
     {Rhythm Fig. 1} {Rhythm Fig. 1} {Rhythm Fig. 1}

  In The Beginning...
03:42
e|---0-------------0-0-------------0-0-------------0---------------2---2-|
b|---0-------------0-0-------------0-0-------------0---------------0---0-|
g|---0-------------0-0-------------0-0-------------0---------------0---0-|
d|---2-------------2-2-------------2-5-------------5-4-5-----------2---2-|
a|---2-------------2-3-------------3-4-------------4---------------2---2-|
E|-0-0-------------0-------------------------------------0-0-0-0-0-0-0-0-|
     {Rhythm Fig. 1} {Rhythm Fig. 1} {Rhythm Fig. 1}

  It Was An Expected...
03:55
e|---0-------------0-0-------------0-0-------------0---------------2---2-|
b|---0-------------0-0-------------0-0-------------0---------------0---0-|
g|---0-------------0-0-------------0-0-------------0---------------0---0-|
d|---2-------------2-2-------------2-4-------------4-4-5-----------2---2-|
a|---2-------------2-3-------------3-2-------------2---------------2---2-|
E|-0-0-------------0-------------------------------------0-0-0-0-0-0-0-0-|
     {Rhythm Fig. 1} {Rhythm Fig. 1} {Rhythm Fig. 1}

  You Can Never...
04:09
e|---------------0---------------------------------0-------|
b|---------0-------0---0---------0-----0-----0-------0-----|
g|---0-------0-------0---0---------0-----0-----0-------0---|
d|-----2-------2-----------2-------------------------------|
a|-------2-------------------2-3-----3-----3-----3-------3-|
E|-0-------------------------------------------------------|

  And To Want You...
04:15
e|---------------------------|
b|---0-----0-----0-----------|
g|-----0-----0-----0---0-----|
d|-------4-----4-----4-------|
a|-5---------------------4-5-|
E|-----------------------2-3-|


CHORUS #2 (Distorted)

  Go...
04:18
e|------------------------------------------------------------------------|
b|------------------------------------------------------------------------|
g|------------------------------------------------------------------------|
d|-----------------5-------------------------------------5-------------5-4|
a|-77777-7\5-7\5-----7-77777-7\5---------77777-7\5-7\5-----7-77777-7\5-3-2|
E|---------------7---------------7-6-5-3---------------7------------------|
  
  Woman...
04:32
e|------------------------------------------------------------------------|
b|------------------------------------------------------------------------|
g|------------------------------------------------------------------------|
d|-----------------5-------------------------------------5-------------5-4|
a|-77777-7\5-7\5-----7-77777-7\5---------77777-7\5-7\5-----7-77777-7\5-3-2|
E|---------------7---------------7-6-5-3---------------7------------------|

  Woman...
04:46
e|--------------------------------------------------------|
b|--------------------------------------------------------|
g|--------------------------------------------------------|
d|-9------------------------------------5-------------5-4-|
a|-7--77777-7-5---------77777-7\5-7\5-----7-77777-7\5-3-2-|
E|--------------7-6-5-3---------------7-------------------|


SOLO

04:59
e|---------------------------------------------------------------|
b|---------------------------------------------------------------|
g|------------------------------------------------------11-12-14-|
d|-2-4-4/5-5/7-0-2-2/4-4/5------------------------12-14----------|
a|-------------------------3-5-5/7-7/9-9/10-10/12----------------|
E|---------------------------------------------------------------|

05:11
e|-------------------------------12-14-14b15r14-14b15-12-|
b|-12-15b17-17b19-17b20r17-12-15-------------------------|
g|-------------------------------------------------------|
d|-------------------------------------------------------|
a|-------------------------------------------------------|
E|-------------------------------------------------------|

05:14
e|-12-15-17-17b19-17-17b19-17-17b19-17-17b19-17-17b19-17-17b19-17-17b19-|
b|----------------------------------------------------------------------|
g|----------------------------------------------------------------------|
d|----------------------------------------------------------------------|
a|----------------------------------------------------------------------|
E|----------------------------------------------------------------------|

05:22
e|-17b19-19-19-19-17-17-17-17-15-15-15-15-14-14-14-14-12-12-12-|
b|-------------------------------------------------------------|
g|-------------------------------------------------------------|
d|-------------------------------------------------------------|
a|-------------------------------------------------------------|
E|-------------------------------------------------------------|


CHORUS #3 (Distorted)

  Woman...
05:25
e|------------------------------------------------------------------------|
b|------------------------------------------------------------------------|
g|------------------------------------------------------------------------|
d|-----------------5-------------------------------------5-------------5-4|
a|-77777-7\5-7\5-----7-77777-7\5---------77777-7\5-7\5-----7-77777-7\5-3-2|
E|---------------7---------------7-6-5-3---------------7------------------|

  Woman...
05:39
e|------------------------------------------------------------------------|
b|------------------------------------------------------------------------|
g|------------------------------------------------------------------------|
d|-----------------5-------------------------------------5-------------5-4|
a|-77777-7\5-7\5-----7-77777-7\5---------77777-7\5-7\5-----7-77777-7\5-3-2|
E|---------------7---------------7-6-5-3---------------7------------------|

  Woman...
05:52
e|------------------------------------------------------------------------|
b|------------------------------------------------------------------------|
g|------------------------------------------------------------------------|
d|-----------------5-------------------------------------5-------------5-4|
a|-77777-7\5-7\5-----7-77777-7\5---------77777-7\5-7\5-----7-77777-7\5-3-2|
E|---------------7---------------7-6-5-3---------------7------------------|

  My Heart...
06:06
e|------------------------------------------------------------------------|
b|------------------------------------------------------------------------|
g|------------------------------------------------------------------------|
d|-----------------5-------------------------------------5-------------5-4|
a|-77777-7\5-7\5-----7-77777-7\5---------77777-7\5-7\5-----7-77777-7\5-3-2|
E|---------------7---------------7-6-5-3---------------7------------------|

  Heart...
06:19
e|---------------------------------------------------------------------| 
b|---------------------------------------------------------------------|
g|---------------------------------------------------------------------|
d|-----------------5-------------------------------------5-------------|
a|-77777-7\5-7\5-----7-77777-7\5---------77777-7\5-7\5-----7-77777-7\5-|
E|---------------7---------------7-6-5-3---------------7---------------|

06:30
e|-------|
b|-------|
g|-------|
d|-5-4---|
a|-3-2-2-|
E|-----0-|


| b  Bend To (Push String Up Or Down Within Same Fret To Desired Note)
| r  Release To (Let String Play From A Bent Position To An Unbent Position)
| /  Slide Up (Slide From Current Note To Next Note Or Toward Guitar Body)
| \  Slide Down (Slide From Current Note To Next Note Or Toward Guitar Head)
| h  Hammer-On (Press A Finger Down Quick And Hard To Achieve Next Note)
| p  Pull-Off (Pull Off And Slightly Down To Let Next Note Ring)
| ~  Vibrato (Bend String Up And Down Rapidly, Very Slight Bends)
| +  Harmonic (Lightly Touch String Over A Sweet Spot And Pluck)
| x  Rhythmic Chuck Note (Touch Strings, Dont Push To Board, Strum)
============================================================================
Tap to rate this tab
# A B C D E F G H I J K L M N O P Q R S T U V W X Y Z