Song name
# A B C D E F G H I J K L M N O P Q R S T U V W X Y Z

Lemar - Body Talk tab

Help us improve GuitareTab! Take a short survey!
Body Talk (acoustic version)

This is my attempt at the acoustic version of Body Talk where Lemar does the rap at the end.

\ = Downstroke
/ = Upstroke


     \  \  /  /  \  \  /  \  \  \  /
e|---7--x--7--x--7--x--x--7--7--x--x-----|
B|---7--x--7--x--7--x--x--7--7--x--x-----|
G|---8--x--8--x--8--x--x--8--8--x--x-----|
D|---9--x--9--x--9--x--x--9--9--x--x-----|
A|---9--x--9--x--9--x--x--9--9--x--x-----|
E|---7--x--7--x--7--x--x--7--7--x--x-----|

    ¡§Tonight you gotta trust me girl¡¨

     \  \  /  /  \  \  /  \  \  \  /
e|---7--x--7--x--7--x--x--7--7--x--x-----|
B|---7--x--7--x--7--x--x--7--7--x--x-----|
G|---9--x--9--x--9--x--x--9--9--x--x-----|
D|---9--x--9--x--9--x--x--9--9--x--x-----|
A|---7--x--7--x--7--x--x--7--7--x--x-----|
E|---7--x--7--x--7--x--x--7--7--x--x-----|

     ¡§It¡¦s all about actions not about words¡¨

     \  \  /  /  \  \  /  \  \  \  /
e|---7--x--7--x--7--x--x--9--9--x--x-----|
B|---7--x--7--x--7--x--x--9--9--x--x-----|
G|---9--x--9--x--9--x--x--11-11-x--x-----|
D|---9--x--9--x--9--x--x--11-11-x--x-----|
A|---7--x--7--x--7--x--x--9--9--x--x-----|
E|---7--x--7--x--7--x--x--9--9--x--x-----|

     ¡§Got plans for you, what you want me to¡¨

     \  \  /  /  \  \  /  \  \  \  /
e|---7--x--7--x--7--x--x--7--7--x--x-----|
B|---7--x--7--x--7--x--x--7--7--x--x-----|
G|---8--x--8--x--8--x--x--8--8--x--x-----|
D|---9--x--9--x--9--x--x--9--9--x--x-----|
A|---9--x--9--x--9--x--x--9--9--x--x-----|
E|---7--x--7--x--7--x--x--7--7--x--x-----|

     ¡§Girl I will do, you can pick and choose¡¨

And that¡¦s all there is to it!! All the way through! Does anyone have any other Lemar 
tabs that they can post (50/50 or Dance (With U))? Let me know if you do, and please 
on my tab ļ
Related for Body Talk tab