Song name
# A B C D E F G H I J K L M N O P Q R S T U V W X Y Z

Lemuria - Dog chords

Highlighted       Show chord diagrams
-----------------------------------------------------------------------------
                             DOG - Lemuria
-----------------------------------------------------------------------------

Tuning: Standard


Riff:  A      E

A                  E          A         E
I feel like you've died and I want you back
      A                E              C#m
But I know that I will never see you again

Riff

A                        E
Walking around trying to keep my mouth shut
A         E
While the pity piles up
A
While the pity piles up

A    B5   C5     x4

Riff

A                            E                 A
Like a goddamn dog with it's tail between it's legs
 E                   A               E        C#m
Ashamed of trying to butter up your obituary

A                    E                A          E
At least I can say I tried with you
A                    E
At least I can say I tried with you

A    B5   C5     x4



Riff:
   A                    E
e|-------------------------------------|
B|-------------------------------------|
G|-13b14r13---13b14r13--13131313--13---|
D|--------------------------9-9---9----|
A|-11b12r11---11b12r11--1111-----------|
E|----------------------0-0-0-0---0----|
I suggest making the first octave w/ ur middle and pinky, so you can move ur pointer to 
the 9 easily. Alternative would be to play the 14 on the A string.


It also sounds better this way if playing with one guitar:
e|-----------------------------------|
B|-----------------------------------|
G|-----------------------------------|
D|-6b7r6---6b7r6---6-------9-9---9---|
A|-0-------0-------0----7--7-7---7---|
E|----------------------0--0-0---0---|



  And over the verse, other guitar part plays this
e|--------------------------------------------------------------------------|
B|--------------------------------------------------------------------------|
G|-14-14-14-14-9-9-9-9-14-14-14-14-9-9-9-9-14-14-14-14-13-13-13-13-9-9-9-9--|
D|-x--x--x--x--x-x-x-x-x--x--x--x--x-x-x-x-x--x--x--x--x--x--x--x--x-x-x-x--|
A|-12-12-12-12-7-7-7-7-12-12-12-12-7-7-7-7-12-12-12-12-11-11-11-11-7-7-7-7--|
E|--------------------------------------------------------------------------|
Tap to rate this tab
# A B C D E F G H I J K L M N O P Q R S T U V W X Y Z