Song name
# A B C D E F G H I J K L M N O P Q R S T U V W X Y Z

Lemuria - Pants tab

-------------------------------------------------------------------------------
Pants - Lemuria
Get Better
-------------------------------------------------------------------------------
Tabbed by: axeslash
Email: holmzito@yahoo.com

Tuning: Standard

e|-------------------------0-0-0-0-0-0-----------------------------|
B|-------------------------0-0-0-0-0-0-----------------------------|
G|-4-4-4-0-----4-4-2-2-2-0-1-1-1-1-1-1------4--4-0-2-2-2-0-3-3-2-0-|
D|-2-2-2-0-2-2-4-4-2-2-2-0-2-2-2-2-2-2--2-0-2--2-0-4-4-4-0-2-2-2-0-|
A|-4-4-4-0-2-2-2-2-0-0-0-0-2-2-2-2-2-2--2-0-4--4-0-0-0-0-0-3-3-0-0-|
E|---------0-0-------------0-0-0-0-0-0--0-0------------------------| x4

e|------------------------------------------------------------------------|
B|------------------------------------------------------------------------|
G|-4-4-4-4-4-4-4-4-2-2-2-2-2-2-2-2-4-4--4-4--4--4-4--4-4--4--4-4--4-4--4--|
D|-4-4-4-4-4-4-4-4-2-2-2-2-2-2-2-2-2-2--2-2--2--2-2--2-2--2--2-2--2-2--2--|
A|-2-2-2-2-2-2-2-2-0-0-0-0-0-0-0-0-4-4--4-0--0--4-4--4-0--0--4-4--4-0--0--|
E|--[X-X-X-X-X-X-X]-[X-X-X-X-X-X-X]---------------------------------------|

e|--------------------------------------------------------------------------|
B|--------------------------------------------------------------------------|
G|-4-4-4-4-4-4-4-4-2-2-2-2-2-2-2-2-4-4--4-4--4--4-4--4-4--4--4-4--4-4--4----|
D|-4-4-4-4-4-4-4-4-2-2-2-2-2-2-2-2-2-2--2-2--2--2-2--2-2--2--2-2--2-2--2----|
A|-2-2-2-2-2-2-2-2-0-0-0-0-0-0-0-0-4-4--4-0--0--4-4--4-0--0--4-4--4-0--0----|
E|--[X-X-X-X-X-X-X-X-X-X-X-X-X-X-X]-----------------------------------------|

e|------------------------|
B|------------------------|
G|------------------------|
D|-4---4---4---4---4-4----|
A|-4---4---4---4---4-4----|
E|-2---2---2---2---2-2----|


e|-------------------------0-0-0-0-0-0-----------------------------|
B|-------------------------0-0-0-0-0-0-----------------------------|
G|-4-4-4-0-----4-4-2-2-2-0-1-1-1-1-1-1------4--4-0-2-2-2-0-3-3-2-0-|
D|-2-2-2-0-2-2-4-4-2-2-2-0-2-2-2-2-2-2--2-0-2--2-0-4-4-4-0-2-2-2-0-|
A|-4-4-4-0-2-2-2-2-0-0-0-0-2-2-2-2-2-2--2-0-4--4-0-0-0-0-0-3-3-0-0-|
E|---------0-0-------------0-0-0-0-0-0--0-0------------------------| x4

e|------------------------------------------------------------------------|
B|------------------------------------------------------------------------|
G|-4-4-4-4-4-4-4-4-2-2-2-2-2-2-2-2-4-4--4-4--4--4-4--4-4--4--4-4--4-4--4--|
D|-4-4-4-4-4-4-4-4-2-2-2-2-2-2-2-2-2-2--2-2--2--2-2--2-2--2--2-2--2-2--2--|
A|-2-2-2-2-2-2-2-2-0-0-0-0-0-0-0-0-4-4--4-0--0--4-4--4-0--0--4-4--4-0--0--|
E|--[X-X-X-X-X-X-X]-[X-X-X-X-X-X-X]---------------------------------------|

e|--------------------------------------------------------------------------|
B|--------------------------------------------------------------------------|
G|-4-4-4-4-4-4-4-4-2-2-2-2-2-2-2-2-4-4--4-4--4--4-4--4-4--4--4-4--4-4--4----|
D|-4-4-4-4-4-4-4-4-2-2-2-2-2-2-2-2-2-2--2-2--2--2-2--2-2--2--2-2--2-2--2----|
A|-2-2-2-2-2-2-2-2-0-0-0-0-0-0-0-0-4-4--4-0--0--4-4--4-0--0--4-4--4-0--0----|
E|--[X-X-X-X-X-X-X-X-X-X-X-X-X-X-X]-----------------------------------------|

e|------------------------|
B|------------------------|
G|------------------------|
D|-4---4---4---4---4-4----|
A|-4---4---4---4---4-4----|
E|-2---2---2---2---2-2----|

e|--------------------------------------------------0--0--0--0--0-0-|
B|----------------------------------2--2--2--2--2-2-0--0--0--0--0-0-|
G|-4--4--4--4--4-4-4-4-4--4--4--4-4-2--2--2--2--2-2-1--1--1--1--1-1-|
D|-2--2--2--2--2-2-4-4-4--4--4--4-4-2--2--2--2--2-2-2--2--2--2--2-2-|
A|-4--4--4--4--4-4-2-2-2--2--2--2-2-0--0--0--0--0-0-2--2--2--2--2-2-|
E|--------------------------------------------------0--0--0--0--0-0-|

e|---------------------------------|
B|---------------------------------|
G|---------------------------------|
D|-4--4--4--4--4-4-3--3--3--3--3-3-|
A|-4--4--4--4--4-4-3--3--3--3--3-3-|
E|-2--2--2--2--2-2-1--1--1--1--1-1-|

e|-------------------------0-0-0-0-0-0-----------------------------|
B|-------------------------0-0-0-0-0-0-----------------------------|
G|-4-4-4-0-----4-4-2-2-2-0-1-1-1-1-1-1------4--4-0-2-2-2-0-3-3-2-0-|
D|-2-2-2-0-2-2-4-4-2-2-2-0-2-2-2-2-2-2--2-0-2--2-0-4-4-4-0-2-2-2-0-|
A|-4-4-4-0-2-2-2-2-0-0-0-0-2-2-2-2-2-2--2-0-4--4-0-0-0-0-0-3-3-0-0-|
E|---------0-0-------------0-0-0-0-0-0--0-0------------------------| x3

e|-------------------------0-0-0-0-0-0-----------------------------------------------|
B|-------------------------0-0-0-0-0-0-----------------------------------------------|
G|-4-4-4-0-----4-4-2-2-2-0-1-1-1-1-1-1------4--4-0-2-2-2-0-4--4----------------------|
D|-2-2-2-0-2-2-4-4-2-2-2-0-2-2-2-2-2-2--2-0-2--2-0-4-4-4-0-4--4--3--3----------------|
A|-4-4-4-0-2-2-2-2-0-0-0-0-2-2-2-2-2-2--2-0-4--4-0-0-0-0-0-2--2--3--3----------------|
E|---------0-0-------------0-0-0-0-0-0--0-0----------------------1--1----------------|


|[x] palm mute
| /  slide up
| \  slide down
| h  hammer-on
| p  pull-off
| ~  vibrato
| +  harmonic
| x  Mute note
===============================================================================
Tap to rate this tab
 
# A B C D E F G H I J K L M N O P Q R S T U V W X Y Z