Song name
# A B C D E F G H I J K L M N O P Q R S T U V W X Y Z

Lemuria - Lipstick chords

Highlighted       Show chord diagrams
Hey bbs, this is Lipstick, should be right. Standard Tuning

INTRO:
A

B  -  A  -  E
C#m-  A  -  E


VERSE: (bass)
B
When you wear Lipstick, I always want to kiss you,
but you use your lipstick as an excuse not to kiss me,

B  -  A  -  E
C#m-  A  -  E

VERSE: (bass)
B
You prefer to do it in the morning, when you have morning breath,
or at noon, when you have coffee breath.

INTERLUDE:
C#m        E

CHORUS:
A
Maybe I should wear lipstick too,
Maybe I should wear lipstick too,
Maybe I should wear lipstick too,
Maybe I should, maybe I should,
B          A          E
Maybe I should wear lipstick too,
C#m        A          E
Maybe I should wear lipstick too,
B          A          E
Maybe I should wear lipstick too,
C#m        A          E
Maybe I should wear lipstick too,

OUTRO:
B  -  A  -  E




INTRO: (just keep playing)
e|-------------------|
B|-------------------|
G|---------------2---|
D|-2-2-2-2-2-2-2-2---|
A|-0-0-0-0-0-0-0-0---|
E|-------------------|
   pm. . . . . . . 

this plays over the main riff
   B          A       E
e|-------------------------------|
B|-7---7---9-9----7---7---9-9----|
G|---8---8----------8---8--------|
D|-------------------------------|
A|-------------------------------|
E|-------------------------------|

VERSE: (played at the end)
e|-----------------------|
B|-----------------------|
G|-----------------------|
D|-----------------------|
A|-----------------------|
E|--/12---0-0-/12---0-0--|
Tap to rate this tab
# A B C D E F G H I J K L M N O P Q R S T U V W X Y Z