Song name
# A B C D E F G H I J K L M N O P Q R S T U V W X Y Z

Leng Tche - The Meaning Of Life tab

Leng Tch'e: The Meaning of Life
Off of ManMadePredator
Tabbed by Girdnygrind (Alex)
(c) Willowtip Records

Suffixes:
" = Tremelo
. = Palm Mute
L = Mute Immediately

(0:03) Riff A:
B |-------------------------------|
F#|-------------------------------|
D |-------------------------------|
A |-------------------------------|
E |----2-----2---------2-----2----|
A |0-3---0-3---3-7-0-3---0-3---3-7|(x4)
   " " " " " " " " " " " " " " " "

(0:17) Riff B:
B |---------------------------------|
F#|---------------------------------|
D |---------------------------------|
A |0--1--4---3-2--1-0--1--4---3-2--1|
E |0--1--4---3-2--1-0--1--4---3-2--1|
A |0--1--4---3-2--1-0--1--4---3-2--1|(x8)
             . .  .           . .  .

(Riff A)(x4)
Tap to rate this tab
 
# A B C D E F G H I J K L M N O P Q R S T U V W X Y Z