Song name
# A B C D E F G H I J K L M N O P Q R S T U V W X Y Z

Lenny Kravitz - Flowers For Zoe tab

Help us improve GuitareTab! Take a short survey!
FLOWERS FOR ZOE - LENNY KRAVITZ


This one's real easy just play this a million times  
  
  
  G6                 F#7               Fmaj7             E
|-------0----------|-------0---------|-------0---------|-------0------------|
|-----3-----3------|-----2-----2-----|-----1-----1-----|-----0-----0--------|
|---4---------4----|---3---------3---|---2---------2---|---1---------1------|
|-5-------------5--|-4-------------4-|-3-------------3-|-2-------------2----|
|------------------|-----------------|-----------------|--------------------|
|------------------|-----------------|-----------------|--------------------|


cello part for guitar 
chorus pedal, (I used an ibanez CF7    speed= 7+ depth= 10   delay= 5-   regen.= 8-)

|-----|------|--|------|----------|------|--|------|----------|------|--|------|---------|
|-----|------|--|------|----------|------|--|------|----------|------|--|------|---------|
|-9---|-7-9--|--|-7-9--|-9\12-----|------|--|------|--------9-|-7-9--|--|-7-9--|-9\12----|
|-----|------|--|------|-------10-|-8-10-|--|-8-10-|-10\12----|------|--|------|------10-|
|-----|------|--|------|----------|------|--|------|----------|------|--|------|---------|
|-----|------|--|------|----------|------|--|------|----------|------|--|------|---------|

|--|----------|------|-
|--|----------|------|-
|--|----------|------|-
|--|-8h10p8---|-8-10-|-
|--|----------|------|-
|--|----------|------|-
Related for Flowers For Zoe tab