Song name
# A B C D E F G H I J K L M N O P Q R S T U V W X Y Z

Lenny Kravitz - Come On Get It tab

-----------------------------------------------------------------------------
                Come on Get It by Lenny Kravitz
-----------------------------------------------------------------------------

Tuning: Standard - EADGBe

Main Riff
|--------------------------------------------------------------------------|
|--------------------------------------------------------------------------|
|--------------------------------------------------------------------------|
|--------------------------------------------------------------------------|
|--------3b-------------3b----------5-3------------------------------------|
|-3-5-xx----5-xx-3-5-xx----5-xx-3-5----------------------------------------|

Chorus
|--------------------------------------------------------------------------|
|--------------------------------------------------------------------------|
|-------------7-7-------7-7-------7---------------5-5-------5-5-------5-5--|
|-9-8-7-------7-7-------7-7-------7---7-6-5-------5-5-------5-5-------5-5--| 
|-7-6-5--/7h9-------7h9-------7h9-----5-4-3--/5h7-------5h7-------5h7------|
|--------------------------------------------------------------------------|

Riff After Chorus
|--------------------------------------------------------------------------|
|--------------------------------------------------------------------------|
|--------------------------------------------------------------------------|
|--------------------------------------------------------------------------|
|-9-9-9-9-9-9-9-9-7-7-7-7-7-7-7-7------------------------------------------|
|-7-7-7-7-7-7-7-7-5-5-5-5-5-5-5-5------------------------------------------|


************************************

| /   slide up
| \   slide down
| h   hammer-on
| p   pull-off
| v   vibrato
| +   harmonic
| x   Mute note
| b   Bend
| pb  Pre-bend
| br  Bend release
| pbr Pre-bend release
| brb Bend release bend

************************************
Tap to rate this tab
 
# A B C D E F G H I J K L M N O P Q R S T U V W X Y Z