Song name
# A B C D E F G H I J K L M N O P Q R S T U V W X Y Z

Leo Ferre - La Memoire Et La Mer tab

Help us improve GuitareTab! Take a short survey!
LA MEMOIRE ET LA MER - LEO FERRE

By Seboddos aka zappy the koala

|14------12----12-----10----10-----8-----7------7-----5-----5------3-----3------0------|
|---12------12----10-----10----8------8----7------5-----5-----3------3------1-----1----|
|------12-----12----11-----11----9------9----7------5-----5-----4-------4------2-----2-|
|--------------------------------------------------------------------------------------|
|--------------------------------------------------------------------------------------|
|--------------------------------------------------------------------------------------|

E |-----------------------------3--2--0--3--7--------------------------|
B |--5-----3-----0-----5-----------------------------------------------|
G |----4-----2-----0-----4---------------------------------------------|
D |------5-----4-----4-----5-------------------------------------------|
A |--------------------------------------------------------------------|
E |--------------------------------------------------------------------|
Related for La Memoire Et La Mer tab