Song name
# A B C D E F G H I J K L M N O P Q R S T U V W X Y Z

Les Claypool - South Park Theme tab

South Park Theme
By: Les Claypool

Tabbed by: 
Jonathan Adams
Jonbadams@charter.net
OR
JbryantA@Musician.org



2/4 TIME
NOTE: The Chords are supposed to sound all messed up.

   s  s  s  s  E     s  s     s  s  E    E     E
|--------------------------|--------------------------|
|--x--x--x--x--14----x--x--|--13-13-14----------------|
|--x--x--x--x--17----x--x--|--------------11----14----|
|--------------------------|--------------------------|
|--------------------------|--------------------------|
|--------------------------|--------------------------|
 Clean Guitar
   s  s  E     s  s  E        Q          Q
|--------------------------|-------------14\----------|
|--------------------------|-------------13\----------|
|--14-14-14----13-13-13----|--11----------------------|
|--13-13-13----12-12-12----|--10----------------------|
|--------------------------|--------------------------|
|--------------------------|--------------------------|

   E     E     E     E        E     E     E     E
|--------------------------|--------------------------|
|--------------------------|--------------------------|
|--------11----------11----|--------11----------11----|
|--------10----------10----|--------10----------10----|
|--9-----9-----------9-----|--9-----9-----------9-----|
|--------------8-----------|--------------8-----------|

   E     E     E     E        E     E     E     E
|--------------------------|--------------------------|
|--------------------------|--------------------------|
|--------11----------11----|--------11----------11----|
|--------10----------10----|--------10----------10----|
|--9-----9-----------9-----|--9-----9-----------9-----|
|--------------8-----------|--------------8-----------|

   E     E     E     E        E     E     Q
|--------------------------|--------------------------|
|--10----10----10----10----|--13----13----13----------|
|--8-----8-----8-----8-----|--11----11----11----------|
|--7-----7-----7-----7-----|--10----10----10----------|
|--------------------------|--------------------------|
|--------------------------|--------------------------|

  E     E     E     E        E     E     Q
|--------------------------|--------------------------|
|--10----10----10----10----|--13----13----13----------|
|--8-----8-----8-----8-----|--11----11----11----------|
|--7-----7-----7-----7-----|--10----10----10----------|
|--------------------------|--------------------------|
|--------------------------|--------------------------|
Repeat from Begining w/ different Lyrics


   s  s  s  s  E     s  s     s  s  E    E     E
|--------------------------|--------------------------|
|--x--x--x--x--14----x--x--|--13-13-14----------------|
|--x--x--x--x--17----x--x--|--------------11----14----|
|--------------------------|--------------------------|
|--------------------------|--------------------------|
|--------------------------|--------------------------|

   s  s  s  s  E     s  s     s  s  s  s  s  s  s  s    
|--------------------------|--------12-12-13-13-12-12-|
|--x--x--x--x--14----x--x--|--14-14-------------------|
|--x--x--x--x--17----x--x--|--------------------------|
|--------------------------|--------------------------|
|--------------------------|--------------------------|
|--------------------------|--------------------------|

   E     E     E     E        E     E     Q
|--------------------------|--------------------------|
|--16----16----16----16----|--18----18----18----------|
|--14----14----14----14----|--16----16----16----------|
|--------------------------|--------------------------|
|--------------------------|--------------------------|
|--------------------------|--------------------------|

  E     E     E     E        E     E     Q
|--------------------------|--------------------------|
|--16----16----16----16----|--18----18----18----------|
|--14----14----14----14----|--16----16----16----------|
|--------------------------|--------------------------|
|--------------------------|--------------------------|
|--------------------------|--------------------------|

   s  s  s  s  E     s  s     s  s  E    E     E
|--------------------------|--------------------------|
|--x--x--x--x--14----x--x--|--13-13-14----------------|
|--x--x--x--x--17----x--x--|--------------11----14----|
|--------------------------|--------------------------|
|--------------------------|--------------------------|
|--------------------------|--------------------------|

   s  s  E     s  s  E        Q          Q
|--------------------------|-------------14\----------|
|--------------------------|-------------13\----------|
|--14-14-14----13-13-13----|--11----------------------|
|--13-13-13----12-12-12----|--10----------------------|
|--------------------------|--------------------------|
|--------------------------|--------------------------|
Tap to rate this tab
# A B C D E F G H I J K L M N O P Q R S T U V W X Y Z