Song name
# A B C D E F G H I J K L M N O P Q R S T U V W X Y Z

Less Than Jake - Jen Doesnt Like Me Anymore tab

Help us improve GuitareTab! Take a short survey!
------------------------------------------------------------------------------
	       JEN DOESN'T LIKE ME ANYMORE - Less Than Jake
-------------------------------------------------------------------------------
Tabbed by: Blindsureshot
Email: afteryourmistake@sbcglobal.net

Tuning: Standard
NO TIMING OR GUITAR STROKES ARE SHOWN.

GUITAR 1

Intro

E--------------------|
B--------------------|
G---------8----10--8-|
D-----8---8-8--10--8-|
A-----8---6-8--8---6-|
E-----6-----6--------|
Jen thinks it isn't fair...


Prechorus

E-----------------|
B-----------------|
G------8-----10---|
D---8--8--8--10-8-|
A---8--6--8--8--8-|
E---6-----6-----6-|
Jen Doesn't Like to settle...

Chorus

E------------------|
B------------------|
G--8-10---------8--|
D--8-10--8--6-5-8--|
A--6-8---8--6-5-6--|
E--------6--4-3----| x2
No Jen doesn't like, like me anymore...


PostChorus

E--------------|
B--------------|
G----8/10----8-|
D-8--8/10-6--8-|
A-8--6/8--6--6-|
E-6-------4----|

Verse

E---------|
B---------|
G------8--|
D-8-6--8--|
A-8-6--6--|
E-6-4-----| x4
Yeah Jen doesn't like me anymore...

BRIDGE

E--------------|
B--------------|
G--------------|
G---------10-8-|
D--8-6-8--10-8-|
A--8-6-8--8--6-|
E--6-4-6-------|
Now Jen thinks it isn't fair, that I don't really care...

Prechorus

E-----------------|
B-----------------|
G------8-----10---|
D---8--8--8--10-8-|
A---8--6--8--8--8-|
E---6-----6-----6-|
Jen doesn't like to settle...


Chorus

E
B
G--8-10---------8--|
D--8-10--8--6-5-8--|
A--6-8---8--6-5-6--|
E--------6--4-3----| x2
No Jen doesn't like, like me anymore...


Post Chorus

E--------------|
B--------------|
G----8/10----8-|
D-8--8/10-6--8-|
A-8--6/8--6--6-|
E-6-------4----|
No Jen...

Verse

E-----------|
B-----------|
G------8----|
D-8-6--8----|
A-8-6--6----|
E-6-4-------|x4

Bridge

E------|
B------|
G------|
D--8---|
A--8---|
E--6---|
Jen Jen Jeeeen Jen..


E----------------|
B----------------|
G---------8-10-8-|
D---8--5--8-10-8-|
A---8--5--6-8--6-|
E---6--3---------|
Jen Jen Jeeeen Jen No she doesn't...

E
B
G------8/10---8-|
D---8--8/10-6-8-|
A---8--6/8--6-6-|
E---6-------4---|
No she doesn't like me anymooooore...


Outro

E-------------------------------------|
B-------------------------------------|
G--10~--10-10-8--8--------------------|
D--10~--10-10-8--8--12-12-10-10-8-7-8-|
A--6-~--8--8--6--6--12-12-10-10-8-7-8-|
E-------------------10-10-8--8--6-5-6-|
(Trumpets plus guitar.)

===============================================================================
Related for Jen Doesnt Like Me Anymore tab