Guitaretab - guitar tabs
Song name
# A B C D E F G H I J K L M N O P Q R S T U V W X Y Z

Less Than Jake - Summer Nights tab

Summer nights
Less Than Jake
Tab by : david_beausejour@hotmail.com

-------------------------------------------------------------------------------

Summer lovin' had me a blast
Summer lovin', happened so fast
I met a girl crazy for me
Met a boy, cute as can be
Summer days driftin' away, to uh-oh those summer nights

e|-----------------------------|
B|-----------------------------|
G|-----4--6--4-6-4-------------|
D|--4--4--6--4-6-4-------------|    2 fois
A|--4--2--4--2-4-2-------------|
E|--2--------------------------|

e|------------------------------------------------|
B|------------------------------------------------|
G|-----4--6--8-----6---6--8-10-11--8-6-3-4-6------|
D|--4--4--6--8---6-6-6-6--8-10-11--8-6-3-4-6-4----|
A|--4--2--4--6---6-4-6-4--6-8-9---6-4-1-2-4-4----|
E|--2------------4---4-----------------------2----|


[oh-ela-ela-ela-ooh]  (rien)


Tell me more, tell me more, did you get very far?
Tell me more, tell me more, like, does he have a car?
 [aha--tu-dub-aha--tu-dub-aha--tu-dub-tu-dub-dub]

e|-----------------------------------------------|
B|-----------------------------------------------|
G|-----4---6----4---6-----4-6-4------4-6-4-------|
D|---4-4-6-6--4-4-6-6---4-4-6-4-4--4-4-6-4-4-----|
A|---4-2-6-4--4-2-6-4---4-2-4-2-4--4-2-4-2-4-----|
E|---2---4----2---4-----2-------2--2-------2-----|



She swam by me, she got a cramp
He ran by me, got my suit damp
I saved her life, she nearly drowned
He showed off, splashing around
Summer sun, something's begun, but uh-oh those summer nights

e|-----------------------------------------------------|
B|-----------------------------------------------------|
G|----------4--6--8-----6---6--8-10-11--8-6-3-4-6------|
D|-4--4--4--4--6--8---6-6-6-6--8-10-11--8-6-3-4-6-4----|
A|-4--4--4--2--4--6---6-4-6-4--6-8--9---6-4-1-2-4-4----|
E|-2--2--2------------4---4-----------------------2----|

[oh-ela-ela-ela-ooh]  (rien)

[ Tab from: http://www.guitaretab.com/l/less-than-jake/132726.html ]
Tell me more, tell me more, was it love at first sight?
Tell me more, tell me more, did she put up a fight?
[dub--tu-bee-dub--tu-bee-dub--tu-bee-du-bee-du-bee-]

e|-----------------------------------------------|
B|-----------------------------------------------|
G|-----6---8----6---8-----6-8-6------6-8-6-------|
D|---6-6-8-8--6-6-8-8---6-6-8-6-6--6-6-8-6-6-----|
A|---6-4-8-6--6-4-8-6---6-4-6-4-6--6-4-6-4-6-----|
E|---4---6----4---6-----4-------4--4-------4-----|


Took her bowlin' in the Arcade
We went strollin', drank lemonade
We made out under the dock
We stayed up `til ten o'clock
Summer fling don't mean a thing, but uh-oh those summer nights

e|---------------------------------------------|
B|---------------------------------------------|
G|------6-8-10----8---8-----------8-5-6-8------|
D|-6--6-6-8-10--8-8-8-8--3-5-6-3--8-5-6-8-6----|
A|-6--6-4-6-8---8-6-8-6--3-5-6-3--6-3-4-6-6----|
E|-4--4---------6---6----1-3-4-1----------4----|


[oh-ela-ela-ela-ooh]  (rien)


Tell me more, tell me more, how much dough did he spend?
Tell me more, tell me more, could she get me a friend?

e|-----------------------------------------------|
B|-----------------------------------------------|
G|-----7---9----7---9----------------------------|
D|---7-7-9-9--7-7-9-9--7-------------------------|
A|---7-5-9-7--7-5-9-7--7-------------------------|
E|---5---7----5---7----5-------------------------|


  It turned colder,  that's where it ends
  So I told her      we'd still be friends
  Then we made    our true love vow
  Wonder what she's doin' now

e|-----------------------------------------------|
B|-----------------------------------------------|
G|-----8----6---6--------------------------------|
D|--4--8--6-6-6-6--------------------------------|
A|--4--6--6-4-6-4--------------------------------|
E|--2-----4---4----------------------------------|


  Summer dreams ripped at the seams, but oh, those summer nights
e|-----------------------------------------------|
B|-----------------------------------------------|
G|-11-8-6-3-4-6---------4-6-4---4-6-4------------|
D|-11-8-6-3-4-6-4-----4-4-6-4-4-4-6-4-4----------|
A|-9--6-4-1-2-4-4-----4-2-4-2-4-2-4-2-4----------|
E|--------------2-----2-------2-------2----------|
Related for Summer Nights tab