Song name
# A B C D E F G H I J K L M N O P Q R S T U V W X Y Z

Less Than Jake - The Reflex tab

Cover from the Duran Duran Tribute Album

Intro
e|2-----2-------2-|------2---------|
B|3-------3-------|3-------3-------|
G|2---------2-----|--2-------2-----|  x4
D|0-----------0---|----0-------0---|
A|----------------|----------------|
E|----------------|----------------|

Verse (Palm Muted)
e|----------------|----------------|----------------|----------------|
B|----------------|----------------|----------------|----------------|
G|----------------|----------------|----------------|----------------|
D|7-7-7-7-5-5-5-5-|----------------|7-7-7-5-5-5-5-5-|----------------|
A|5-5-5-5-3-3-3-3-|5-5-5-5-5-5-5-5-|5-5-5-3-3-3-3-3-|5-5-5-3-3-3-3-3-|
E|----------------|3-3-3-3-3-3-3-3-|----------------|3-3-3-1-1-1-1-1-|

e|----------------|----------------|----------------|----------------|
B|----------------|----------------|----------------|----------------|
G|----------------|----------------|----------------|----------------|
D|7-7-7-7-5-5-5-5-|----------------|7-7-7-5-5-5-5-5-|5---------------|
A|5-5-5-5-3-3-3-3-|5-5-5-5-5-5-5-5-|5-5-5-3-3-3-3-3-|5---------------|
E|----------------|3-3-3-3-3-3-3-3-|----------------|3---------------|

Stop Plam Mute
e|----------------|----------------|----------------|----------------|
B|----------------|----------------|----------------|----------------|
G|7-7---5---5-5-5-|----------------|7-7---5---5-5-5-|----------------| x2
D|7-7---5---5-5-5-|5-5-5-5-5-5-5-5-|7-7---5---5-5-5-|5-5---3---3-3-3-|
A|5-5---3---3-3-3-|5-5-5-5-5-5-5-5-|5-5---3---3-3-3-|5-5---3---3-3-3-|
E|----------------|3-3-3-3-3-3-3-3-|----------------|3-3---1---1-1-1-|

Pre-Chorus
e|----------------|----------------|
B|----------------|----------------|
G|9-9---9---9---9-|7-7---5---5---5-|
D|9-9---9---9---9-|7-7---5---5---5-| x3
A|7-7---7---7---7-|5-5---3---3---3-|
E|----------------|----------------|

e|----------------|----------------|
B|----------------|----------------|
G|7-----7-7-----7-|7-----7-7-----7-|
D|7-----7-7-----7-|7-----7-7-----7-|
A|5-----5-5-----5-|5-----5-5-----5-|
E|----------------|----------------|

Chorus
e|----------------|----------------|----------------|----------------|
B|----------------|----------------|----------------|----------------|
G|----------------|--------7-7-7-7-|----------------|--------5-5-5-5-|
D|7-7-7-7-7-7-7-7-|5-5-5-5-7-7-7-7-|7-7-7-7-7-7-7-7-|5-5-5-5-5-5-5-5-| x2
A|7-7-7-7-7-7-7-7-|5-5-5-5-5-5-5-5-|7-7-7-7-7-7-7-7-|5-5-5-5-3-3-3-3-|
E|5-5-5-5-5-5-5-5-|3-3-3-3---------|5-5-5-5-5-5-5-5-|3-3-3-3---------|

Intro
e|2-----2-------2-|------2---------|
B|3-------3-------|3-------3-------|
G|2---------2-----|--2-------2-----|  x2
D|0-----------0---|----0-------0---|
A|----------------|----------------|
E|----------------|----------------|

Verse
e|----------------|----------------|----------------|----------------|
B|----------------|----------------|----------------|----------------|
G|7-7-7-7-5-5-5-5-|----------------|7-7-7-5-5-5-5-5-|----------------|
D|7-7-7-7-5-5-5-5-|5-5-5-5-5-5-5-5-|7-7-7-5-5-5-5-5-|5-5-5-3-3-3-3-3-|
A|5-5-5-5-3-3-3-3-|5-5-5-5-5-5-5-5-|5-5-5-3-3-3-3-3-|5-5-5-3-3-3-3-3-|
E|----------------|3-3-3-3-3-3-3-3-|----------------|3-3-3-1-1-1-1-1-|

e|----------------|----------------|----------------|----------------|
B|----------------|----------------|----------------|----------------|
G|7-7-7-7-5-5-5-5-|----------------|7-7-7-5-5-5-5-5-|----------------|
D|7-7-7-7-5-5-5-5-|5-5-5-5-5-5-5-5-|7-7-7-5-5-5-5-5-|5---------------|
A|5-5-5-5-3-3-3-3-|5-5-5-5-5-5-5-5-|5-5-5-3-3-3-3-3-|5---------------|
E|----------------|3-3-3-3-3-3-3-3-|----------------|3---------------|

e|----------------|----------------|----------------|----------------|
B|----------------|----------------|----------------|----------------|
G|7-7---5---5-5-5-|----------------|7-7---5---5-5-5-|----------------| x2
D|7-7---5---5-5-5-|5-5-5-5-5-5-5-5-|7-7---5---5-5-5-|5-5---3---3-3-3-|
A|5-5---3---3-3-3-|5-5-5-5-5-5-5-5-|5-5---3---3-3-3-|5-5---3---3-3-3-|
E|----------------|3-3-3-3-3-3-3-3-|----------------|3-3---1---1-1-1-|

Pre-Chorus
e|----------------|----------------|
B|----------------|----------------|
G|9-9---9---9---9-|7-7---5---5---5-|
D|9-9---9---9---9-|7-7---5---5---5-| x3
A|7-7---7---7---7-|5-5---3---3---3-|
E|----------------|----------------|

e|----------------|----------------|
B|----------------|----------------|
G|7-----7-7-----7-|7-----7-7-----7-|
D|7-----7-7-----7-|7-----7-7-----7-|
A|5-----5-5-----5-|5-----5-5-----5-|
E|----------------|----------------|

Chorus
e|----------------|----------------|----------------|----------------|
B|----------------|----------------|----------------|----------------|
G|----------------|--------7-7-7-7-|----------------|--------5-5-5-5-|
D|7-7-7-7-7-7-7-7-|5-5-5-5-7-7-7-7-|7-7-7-7-7-7-7-7-|5-5-5-5-5-5-5-5-| x2
A|7-7-7-7-7-7-7-7-|5-5-5-5-5-5-5-5-|7-7-7-7-7-7-7-7-|5-5-5-5-3-3-3-3-|
E|5-5-5-5-5-5-5-5-|3-3-3-3---------|5-5-5-5-5-5-5-5-|3-3-3-3---------|

Intro
e|2-----2-------2-|------2---------|
B|3-------3-------|3-------3-------|
G|2---------2-----|--2-------2-----|  x4
D|0-----------0---|----0-------0---|
A|----------------|----------------|
E|----------------|----------------|

Pre-Chorus
e|----------------|----------------|
B|----------------|----------------|
G|9---------------|7-7---5---5---5-|
D|9---------------|7-7---5---5---5-| x2
A|7---------------|5-5---3---3---3-|
E|----------------|----------------|

e|----------------|----------------|----------------|----------------|
B|----------------|----------------|----------------|----------------|
G|9-9---9---9---9-|7-7---5---5---5-|7~--------------|----------------|
D|9-9---9---9---9-|7-7---5---5---5-|7~--------------|----------------|
A|7-7---7---7---7-|5-5---3---3---3-|5~--------------|----------------|
E|----------------|----------------|----------------|----------------|

Chorus (Ska)x2
e|5-5-x-5-x-5-5-5-|x-5-x-5-x-5-x-5-|7-7-x-7-x-7-x-7-|5-5-x-5-x-5-x-5-|
B|5-5-x-5-x-5-5-5-|x-5-x-5-x-5-x-5-|8-8-x-8-x-8-x-8-|7-7-x-7-x-7-x-7-|
G|6-6-x-6-x-6-6-6-|x-6-x-6-x-6-x-6-|7-7-x-7-x-7-x-7-|7-7-x-7-x-7-x-7-|
D|----------------|----------------|----------------|----------------|
A|----------------|----------------|----------------|----------------|
E|----------------|----------------|----------------|----------------|

e|5-5-x-5-x-5-5-5-|x-5-x-5-x-5-x-5-|3-3-x-3-x-3-x-3-|3-3-x-3-x-3-x-3-|
B|5-5-x-5-x-5-5-5-|x-5-x-5-x-5-x-5-|3-3-x-3-x-3-x-3-|5-5-x-5-x-5-x-5-|
G|6-6-x-6-x-6-6-6-|x-6-x-6-x-6-x-6-|4-4-x-4-x-4-x-4-|5-5-x-5-x-5-x-5-|
D|----------------|----------------|----------------|----------------|
A|----------------|----------------|----------------|----------------|
E|----------------|----------------|----------------|----------------|

Chorus (Regular)
e|----------------|----------------|----------------|----------------|
B|----------------|----------------|----------------|----------------|
G|----------------|--------7-7-7-7-|----------------|--------5-5-5-5-|
D|7-7-7-7-7-7-7-7-|5-5-5-5-7-7-7-7-|7-7-7-7-7-7-7-7-|5-5-5-5-5-5-5-5-| x2
A|7-7-7-7-7-7-7-7-|5-5-5-5-5-5-5-5-|7-7-7-7-7-7-7-7-|5-5-5-5-3-3-3-3-|
E|5-5-5-5-5-5-5-5-|3-3-3-3---------|5-5-5-5-5-5-5-5-|3-3-3-3---------|

e|----------------|
B|----------------|
G|----------------|
D|7~--------------|
A|7~--------------|
E|5~--------------|
Tap to rate this tab
 
# A B C D E F G H I J K L M N O P Q R S T U V W X Y Z