Song name
# A B C D E F G H I J K L M N O P Q R S T U V W X Y Z

Less Than Jake - Welcome To The New South tab

This is my first tab so critique it as you like.
I have seen many versions of this song and they are almost always incorrect.
Mine should be close to correct if not totally correct. If there are mistakes you 
should be change, change them.

Tuning: Standard

Slides - \/
Mutes - x

Since the chord changing pattern is intricate and changes rapidly, I will only give the 
to play. Listen to the cd to get the rythym down.

Intro/Verse
e|----3-----1-----3-----3-----3-----|
B|----0-----1-----3-----4-----3-----|
G|----0-----2-----5-----5-----4-----|
D|----0-----3-----5-----5-----5-----|
A|----2-----3-----3-----3-----6-----|
E|----3-----------3-----3-----3-----|


Chorus
e|----2-----3-----3-----|
B|----3-----0-----3-----|
G|----2-----0-----5-----|
D|----0-----0-----5-----|
A|----0-----2-----3-----|
E|----------3-----3-----|


Transition from Chorus to Verse
e|----7-----5-----|
B|----7-----5-----|
G|----9-----7-----|
D|----9-----7-----|
A|----7-----5-----|
E|----7-----5-----|


Bridge
e|--------7-------7----7------7-------7-----------7-8-7---|
B|---8-10----10-8-----8---10-8-------8---10-8----8-----8--|
G|------------------10-----------10/9---------8-7-------7-|
D|--------------------------------------------------------|
A|--------------------------------------------------------|
E|--------------------------------------------------------|


Transition Out Of Bridge
e|-------5-----5-----5-----|
B|------7-----7-----7------|
G|-----7-----7-----7-------|
D|-------------------------|
A|-------------------------|
E|-------------------------|


Outro
e|-----0-----3-----2-----3-----3-----|
B|-----2-----0-----3-----3-----0-----|
G|-----2-----0-----2-----4-----0-----|
D|-----2-----0-----0-----5-----0-----|
A|-----0-----2-----0-----6-----2-----|
E|-----------3-----------3-----3-----|


Intro 1x
Verse 3x
Chorus 3x
Transition From Chorus To Verse 1x

Verse 3x
Chorus 3x
Transition From Chorus To Verse 1x

Bridge 6x
Transition Out Of Bridge 1x

Outro 2x(same rythym as Intro)
Outro 3x
Tap to rate this tab
# A B C D E F G H I J K L M N O P Q R S T U V W X Y Z