Song name
# A B C D E F G H I J K L M N O P Q R S T U V W X Y Z

Less Than Jake - Let Her Go tab

-------------------------------------------------------------------------------
			     Let Her Go - Less Than Jake
-------------------------------------------------------------------------------
Tabbed by:identityxcrysis
Email: xrunawayboyx@hotmail.com

Tuning: EADGBE (Standard)
Intro is just a A# powerchord

e|--6-6-x-6-6-6--x-6-6-6-x-6-6-6-x-4-4-x-4-4-4-x-3-3-x-3-3-3-x--|
B|--6-6-x-6-6-6--x-6-6-6-x-6-6-6-x-4-4-x-4-4-4-x-4-4-x-4-4-4-x--|
G|--7-7-x-7-7-7--x-7-7-7-x-7-7-7-x-5-5-x-5-5-5-x-5-5-x-5-5-5-x--|
D|--------------------------------------------------------------|
A|--------------------------------------------------------------|
E|--------------------------------------------------------------|

Prechorus
e|-----------------------------------------|
B|-----------------------------------------|
G|-5-555-5555--88-8-8-5-555-5555--88-8-8---|
D|-5-555-5555--88-8-8-5-555-5555--88-8-8---|
A|-3-333-3333--66-6-6-3-333-3333--66-6-6---|
E|-----------------------------------------|

Chorus
e|---------------------------------|
B|---------------------------------|
G|-333333-----------------8-88888--|
D|-333333-------6-66666---8-88888--|
A|-111111etc.---6-66666---6-66666--|
E|--------------4-44444------------|

Chorus part 2
e|---------|
B|---------|
G|-3-5---8-|
D|-3-5-6-8-|
A|-1-3-6-6-|
E|-----4---|

Bridge
e|----------------------|
B|----------------------|
G|-3-5-8-10-3-5-8-------|
D|-3-5-8-10-3-5-8-8-----|
A|-1-3-6-8--1-3-6-8-----|
E|----------------6-----|

Lead break
e|------------------------------|
B|------------------------------|
G|----8-7-5-3------10--10-10-8--|
D|-10----------10---------------|
A|----6-5-3-1------8---8--8--6--|
E|-8-----------8----------------|




===============================================================================
Tap to rate this tab
 
# A B C D E F G H I J K L M N O P Q R S T U V W X Y Z