Song name
# A B C D E F G H I J K L M N O P Q R S T U V W X Y Z

Letlive - Hollywood And She Did tab

Legend:
. - palm mute
b - bend
^ - bend slightly
~ - let ring
h - hammer on
X - don't play
TP - tremolo picking


Intro - 00:00
D# -------------------------------|
A# -------------------------------|
F# -------------------------------|
C# -------------------------------|
G# -------------------------------|
C# -------------------------------|


Verse - 00:02 "...Loud in the ghettos ear..."
D# --------------------------------------------------------------------|
A# --------------------------------------------------------------------|
F# --------------------------------------------------------------------|
C# --0----0---------0----0----------0----0-----------------------------|
G# --0-00-0-00------0-00-0-00-3-----0-00-0-00------000000000000--------|
C# --0-00-0-00-5p3--0-00-0-00---5h--0-00-0-00-5p3--000000000000--------|
       ..   ..        ..   ..         ..   ..      ............


D# --------------------------------------------------------------------|
A# --------------------------------------------------------------------|
F# --------------------------------------------------------------------|
C# --0----0---------0----0----------0----0---------3~------------------|
G# --0-00-0-00------0-00-0-00-3-----0-00-0-00------3~------------------|
C# --0-00-0-00-5p3--0-00-0-00---5h--0-00-0-00-5p3--3~------------------|
       ..   ..        ..   ..         ..   ..


D# --------------------------------------------------------------------|
A# --------------------------------------------------------------------|
F# --------------------------------------------------------------------|
C# --0----0---------0----0----------0----0-----------------------------|
G# --0-00-0-00------0-00-0-00-3-----0-00-0-00------000000000000--------|
C# --0-00-0-00-5p3--0-00-0-00---5h--0-00-0-00-5p3--000000000000--------|
       ..   ..        ..   ..         ..   ..      ............


D# --------------------------------------------------------------------|
A# --------------------------------------------------------------------|
F# --------------------------------------------------------------------|
C# --0----0---------0----0----------0----0---------3~------------------|
G# --0-00-0-00------0-00-0-00-3-----0-00-0-00------3~------------------|
C# --0-00-0-00-5p3--0-00-0-00---5h--0-00-0-00-5p3--3~------------------|
       ..   ..        ..   ..         ..   ..


D# --------------------------------------------------------------------|
A# ---------666666---------------------666666--------------------------|
F# --777777-XXXXXX-555555555555-777777-XXXXXX-555555555555-------------|
C# --777777-333333-555555555555-777777-333333-555555555555-------------|
G# --000000-333333-333333333333-000000-333333-333333333333-------------|
C# --000000-333333-555555555555-000000-333333-555555555555-------------|


Chorus - 00:27 "When they fail and they're running home..."
D# --------------------------------------------------------------------|
A# ---------666666---------------------666666--------------------------|
F# --777777-XXXXXX-555555555555-777777-XXXXXX--------------------------|
C# --777777-333333-555555555555-777777-333333-0000-00000000------------|
G# --000000-333333-333333333333-000000-333333-0000-00000000------------|
C# --000000-333333-555555555555-000000-333333-0000-00000000------------|
                                              ...  ..

Verse 2 - 00:36
D# --------------------------------------------------------------------|
A# --------------------------------------------------------------------|
F# --------------------------------------------------------------------|
C# --0----0---------0----0----------0----0-----------------------------|
G# --0-00-0-00------0-00-0-00-3-----0-00-0-00------000000000000--------|
C# --0-00-0-00-5p3--0-00-0-00---5h--0-00-0-00-5p3--000000000000--------|
       ..   ..        ..   ..         ..   ..      ............


D# --------------------------------------------------------------------|
A# --------------------------------------------------------------------|
F# --------------------------------------------------------------------|
C# --0----0---------0----0----------0----0---------3~------------------|
G# --0-00-0-00------0-00-0-00-3-----0-00-0-00------3~------------------|
C# --0-00-0-00-5p3--0-00-0-00---5h--0-00-0-00-5p3--3~------------------|
       ..   ..        ..   ..         ..   ..


D# --------------------------------------------------------------------|
A# --------------------------------------------------------------------|
F# --------------------------------------------------------------------|
C# --0----0---------0----0----------0----0-----------------------------|
G# --0-00-0-00------0-00-0-00-3-----0-00-0-00------000000000000--------|
C# --0-00-0-00-5p3--0-00-0-00---5h--0-00-0-00-5p3--000000000000--------|
       ..   ..        ..   ..         ..   ..      ............


D# --------------------------------------------------------------------|
A# --------------------------------------------------------------------|
F# --------------------------------------------------------------------|
C# --0----0---------0----0----------0----0---------3~------------------|
G# --0-00-0-00------0-00-0-00-3-----0-00-0-00------3~------------------|
C# --0-00-0-00-5p3--0-00-0-00---5h--0-00-0-00-5p3--3~------------------|
       ..   ..        ..   ..         ..   ..

Chorus 2 - 01:00
D# --------------------------------------------------------------------|
A# ---------666666---------------------666666--------------------------|
F# --777777-XXXXXX-555555555555-777777-XXXXXX-555555555555-------------|
C# --777777-333333-555555555555-777777-333333-555555555555-------------|
G# --000000-333333-333333333333-000000-333333-333333333333-------------|
C# --000000-333333-555555555555-000000-333333-555555555555-------------|



D# --------------------------------------------------------------------|
A# ---------666666---------------------666666--------------------------|
F# --777777-XXXXXX-555555555555-777777-XXXXXX--------------------------|
C# --777777-333333-555555555555-777777-333333-777000000000-------------|
G# --000000-333333-333333333333-000000-333333-777000000000-------------|
C# --000000-333333-555555555555-000000-333333-777000000000-------------|



D# --------------------------------------------------------------------|
A# ---------666666---------------------666666--------------------------|
F# --777777-XXXXXX-555555555555-777777-XXXXXX-555555555555-------------|
C# --777777-333333-555555555555-777777-333333-555555555555-------------|
G# --000000-333333-333333333333-000000-333333-333333333333-------------|
C# --000000-333333-555555555555-000000-333333-555555555555-------------|



D# --------------------------------------------------------------------|
A# ---------666666---------------------666666--------------------------|
F# --777777-XXXXXX-555555555555-777777-XXXXXX--------------------------|
C# --777777-333333-555555555555-777777-333333-7770~--------------------|
G# --000000-333333-333333333333-000000-333333-7770~--------------------|
C# --000000-333333-555555555555-000000-333333-7770~--------------------|


Interlude - 01:34 "It's kinda like we're being paid..."
(Play this melody messily until the bridge, letting each note ring).
D# --------------------------------|
A# --3---1-3---1-3---1-3---1-------|
F# ----2-----2-----2-----2---------|
C# --------------------------------|
G# --------------------------------|
C# --------------------------------|


Bridge - 02:34 "We know failure..."
D# --------------------------------------------------------------------|
A# --------------------------------------------------------------------|
F# --------------------------------------------------------------------|
C# --0000-000000---------------0000-000000-----------------------------|
G# --0000-000000---------------0000-000000-333333------555555----------|
C# --0000-000000-333333555555--0000-000000-------333333------555555----|
     ....                      ....        TPTPTPTPTPTPTPTPTPTPTPTP


D# --------------------------------------------------------------------|
A# --------------------------------------------------------------------|
F# --------------------------------------------------------------------|
C# --0000-000000---------------0000-000000-----------------------------|
G# --0000-000000---------------0000-000000-333---888-------------------|
C# --0000-000000-333333555555--0000-000000----333---777----------------|
     ....                      ....

Guitar 1 - 02:50 "We can not forget this..."
D# --------------------------------------------------------------------|
A# --------------------------------------------------------------------|
F# --------------------------------------------------------------------|
C# --000000-333333-555555555555-000000-333333-555555555555-------------|
G# --000000-333333-555555555555-000000-333333-555555555555-------------|
C# --000000-333333-555555555555-000000-333333-555555555555-------------|



D# --------------------------------------------------------------------|
A# --------------------------------------------------------------------|
F# --------------------------------------------------------------------|
C# --000000-333333-555555555555-000000-333333-555555555555555555555555-|
G# --000000-333333-555555555555-000000-333333-555555555555555555555555-|
C# --000000-333333-555555555555-000000-333333-555555555555555555555555-|


Guitar 2 - 02:50 "We can not forget this..."
D# ---5-3--5-3--5-3--5-3---5-3--5-3--5-3--5-3--------------------------|
A# --5----5---------------5----5---------------------------------------|
F# --------------------------------------------------------------------|
C# --------------------------------------------------------------------|
G# --------------------------------------------------------------------|
C# --------------------------------------------------------------------|



D# ---5-3--5-3--5-3--5-3---5-3--5-3------------------------------------|
A# --5----5---------------5----5---------------------------------------|
F# --------------------------------------------------------------------|
C# --------------------------------------------------------------------|
G# --------------------------------------------------------------------|
C# --------------------------------------------------------------------|



D# --------------------------------------------------------------------|
A# --10----10----10----10----10----10----10----10----10----10~---------|
F# --12b14-12b14-12b14-12b14-12b14-12b14-12b14-12b14-12b14-12b14~------|
C# --------------------------------------------------------------------|
G# --------------------------------------------------------------------|
C# --------------------------------------------------------------------|


Chorus 3 - 03:09
D# --------------------------------------------------------------------|
A# ---------666666---------------------666666--------------------------|
F# --777777-XXXXXX-555555555555-777777-XXXXXX-555555555555-------------|
C# --777777-333333-555555555555-777777-333333-555555555555-------------|
G# --000000-333333-333333333333-000000-333333-333333333333-------------|
C# --000000-333333-555555555555-000000-333333-555555555555-------------|



D# --------------------------------------------------------------------|
A# ---------666666---------------------666666--------------------------|
F# --777777-XXXXXX-555555555555-777777-XXXXXX--------------------------|
C# --777777-333333-555555555555-777777-333333-777000000000-------------|
G# --000000-333333-333333333333-000000-333333-777000000000-------------|
C# --000000-333333-555555555555-000000-333333-777000000000-------------|


Breakdown - 03:45
D# --------------------------------------------------------------------|
A# --------------------------------------------------------------------|
F# --------------------------------------------------------------------|
C# --0----0---------0----0----------0----0-----------------------------|
G# --0-00-0-00------0-00-0-00-3-----0-00-0-00------000000000000--------|
C# --0-00-0-00-5p3--0-00-0-00---5h--0-00-0-00-5p3--000000000000--------|
       ..   ..        ..   ..         ..   ..      ............


D# --------------------------------------------------------------------|
A# --------------------------------------------------------------------|
F# --------------------------------------------------------------------|
C# --0----0---------0----0----------0----0---------3^------------------|
G# --0-00-0-00------0-00-0-00-3-----0-00-0-00------3^------------------|
C# --0-00-0-00-5p3--0-00-0-00---5h--0-00-0-00-5p3--3^------------------|
       ..   ..        ..   ..         ..   ..


D# --------------------------------------------------------------------|
A# --------------------------------------------------------------------|
F# --------------------------------------------------------------------|
C# --0-0----00----------------0----------------------------------------|
G# --0-0-00000-0000-3---0000000----------------------------------------|
C# --0-0-00000-0000--5h-0000000----------------------------------------|
         ...   ....     ......


Please rate. I tabbed this first-hand because it's not been tabbed publicly before, so 
if you have any better methods then share.
Tap to rate this tab
 
# A B C D E F G H I J K L M N O P Q R S T U V W X Y Z