Song name
# A B C D E F G H I J K L M N O P Q R S T U V W X Y Z

Lettuce - Blast Off tab

Band/Artist: Lettuce
Title: Blast Off
Album: Rage!
Transcribed by: Jeffwilliams413 
Website: www.jeffwilliamsguitarinstruction.com
Tuning: Standard
http://www.royalfamilyrecords.com/lettuce

Intro:
						      F7#9
e|-----------------------------------------------|---------------------------| 
B|-----------------------------------------------|-----9---------------------| 
G|------5---3---------3--------------------------|-----8---------------------| 
D|---------------6----------6---5----3-----------|-----7---------------------| 
A|-----------------------------------------------|-----8---------------------| 
E|-----------------------------------------------|---------------------------| 


Rhythm:

   Bbm7

e|----------------------------------------6----------------------------------| 
B|----------------------------------------6----------------------------------| 
G|----------------------------------------6----------------------------------| 
D|-------6-------8------6------8---------------------------------------------| 
A|---------------------------------------------------------------------------| 
E|---------------------------------------------------------------------------| 


A: Horn Melody:

e|-------6---|---6---6--------------------|----------------|-----------------| 
B|----9------|-----6---9---9-8---8-6------|----------------|-------6-6-6-6---| 
G|-----------|-----------8-----8-----8-6--|----------------|-----------------| 
D|-----------|----------------------------|----6----8-6-8--|-----------------| 
A|-----------|----------------------------|----------------|-----------------| 
E|-----------|----------------------------|----------------|-----------------| 


B: Horn Melody:

e|--------------16--15--13------------------|----------------------------------| 
B|--14--14--14--------------16--14--13------|-----------13---------------------| 
G|--------------------------------------15--|--13-13-13----15-13-12------------| 
D|------------------------------------------|------------------------15--13----| 
A|------------------------------------------|-------------------------------16-| 
E|------------------------------------------|----------------------------------| 
Tap to rate this tab
 
# A B C D E F G H I J K L M N O P Q R S T U V W X Y Z