Song name
# A B C D E F G H I J K L M N O P Q R S T U V W X Y Z

Level 42 - Lessons In Love tab

Lessons In Love
Level 42
Running In The Family 1987


2:55

E|----------------------------15-14---------------|
B|-12----12-12----12/15-----15------16-----17b-17-|
G|----14-------14-------16~------------16---------|
D|------------------------------------------------|
A|------------------------------------------------|
E|------------------------------------------------|


E|---------15-14----19b-19-------|
B|------15-------16--------------|
G|---16--------------------------|
D|-------------------------------|
A|-------------------------0-2-3-|
E|-------------------------------|



Tap to rate this tab
# A B C D E F G H I J K L M N O P Q R S T U V W X Y Z