Level 70 Elite Tauren Chieftain - I Am Murloc tab

Let these notes ring
     V       V       V       V
e|---------------------------------------------------------------------|
B|---------------------------------------------------------------------|
G|---------------------------------------------------------------------|
D|-2-2-2---5-5-5---7-7-7---9-9-9---------------------------------------|
A|-2-2-2---5-5-5---7-7-7---9-9-9---------------------------------------|
E|-0-0-0---3-3-3---5-5-5---7-7-7---------------------------------------|
  |---|   |---|   |---|   |--------------------------------------------|
   PM      PM      PM      PM

  VERSE

Part 1a

---------------------------------------------------------------------|
---------------------------------------------------------------------|
---------------------------------------------------------------------|
---------------------------------------------------------------------|
-2-2-2--0-0-0--0-0-3--0-0-2--2-2-0h2---------------------------------|
-0-0-0--0-0-0--0-0-0--0-0-0--0-0-0-----------------------------------|
|---|  |---|  |---|  |---|  |----------------------------------------|
 PM     PM     PM     PM     PM

Part 1b

---------------------------------------------------------------------|
---------------------------------------------------------------------|
---------------------------------------------------------------------|
---------------------------------------------------------------------|
-5-5-5--3-3-3--3-3-6--3-3-5--5-5-3h5---------------------------------|
-3-3-3--3-3-3--3-3-3--3-3-3--3-3-3-----------------------------------|
|---|  |---|  |---|  |---|  |----------------------------------------|
 PM     PM     PM     PM     PM

Part 1c

---------------------------------------------------------------------|
---------------------------------------------------------------------|
---------------------------------------------------------------------|
---------------------------------------------------------------------|
-7-7-7--5-5-5--5-5-8--5-5-7--7-7-5h7---------------------------------|
-5-5-5--5-5-5--5-5-5--5-5-5--5-5-5-----------------------------------|
|---|  |---|  |---|  |---|  |----------------------------------------|
 PM     PM     PM     PM     PM

Part 1d (wasnt sure about this bit at all, sounds unclear)

----------------------------------------------------------------------|
----------------------------------------------------------------------|
----------------------------------------------------------------------|
-9-9-9-9-9-9-9-9-9-9-9-9-9--------------------------------------------|
-9-9-9-9-9-9-9-9-9-9-9-9-9---(i think theres some harmonics here)-----|
-7-7-7-7-7-7-7-7-7-7-7-7-7--------------------------------------------|
|---------------------------------------------------------------------|
    PM
Part 1e

Repeat Part 1a here 4 times
on the 2nd time end on this  and on the 4th time this instead of the 0h2
             NH                    NH
         ---------     |       ----------        ---|
         ---------     |       ----------        ---|
         ---------     |       ----------        ---|
         ---------     |       ----------        ---|
         ----3*---   <-+       ----------        ---|
         ---------             -----3*--------------|       <-+

Next Play this x4


\\\\\\\"Gliding through the depths...\\\\\\\"
---------------------------------------------------------------------|
---------------------------------------------------------------------|
---------------------------------------------------------------------|
-2-2-2--0-0-0--0-0-3--0-0-2--2-2-0h2---------------------------------|
-0-0-0--0-0-0--0-0-0--0-0-0--0-0-0-----------------------------------|
---------------------------------------------------------------------|
|---|  |---|  |---|  |---|  |----------------------------------------|
 PM     PM     PM     PM     PM

            BUT!!!!! (but but but)

ON THE 2nd TIME PLAY THIS AND ON THE 4TH TIME PLAY THIS (Rawr caps again)
             NH                    NH
         ---------     |       ----------        ---|
         ---------     |       ----------        ---|
         ---------     |       ----------        ---|
         ----3*---   <-+       ----------        ---|
         ---------             ----------        ---|
         ---------             -----3*--------------|       <-+


     CHORUS
  i am...                     NH      i am Murloc!
e|--------------------------------|-------------------------------------------------|
B|--------------------------------|-------------------------------------------------|
G|----------------------------3*--|-------------------------------------------------|
D|-2-5--5-7\\\\\\\\5-2---2-5--5-7\\\\\\\\5----- x2 ----2-2--2-2---------------------|
A|-2-5--5-7\\\\\\\\5-2---2-5--5-7\\\\\\\\5------|------2-2--2-2---------------------|
E|-0-3--3-5\\\\\\\\3-0---0-3--3-5\\\\\\\\3------|------0-0--0-0---------------------|
                                        |-------------------------------------------|
                                            PM
                 After this play:
  Intro
  Verse Part 1e
  Chorus


is where the solo comes in, hoping someone mails me it, because i
a clue whats going on in it. The songs in the Key of E if that helps for anyone whos interested--|

  After the Solo it goes back into the Chorus again and ends like this
         Let ring
            V
--------------------------------------------------------------------|
--------------------------------------------------------------------|
--------------------------------------------------------------------|
-5-5--5-5---2-------------------------------------------------------|
-5-5--5-5---2-------------------------------------------------------|
-3-3--3-3---0-------------------------------------------------------|
Tap to rate this tab
 
# A B C D E F G H I J K L M N O P Q R S T U V W X Y Z