Song name
# A B C D E F G H I J K L M N O P Q R S T U V W X Y Z

Level 70 Elite Tauren Chieftan - I Am Murloc tab

 This is my first Tab :)
Intro

                                h                                 h
e|-----------------------------------------------------------------------------|
B|-----------------------------------------------------------------------------|
G|-----------------------------------------------------------------------------|
D|-----2-----0-----3-----2-----02--------2-----0-----3-----2-----02------------|
A|-----------------------------------------------------------------------------|
E|-0-0-----0-----0-----0-----0-------3-3-----3-----3-----3-----3---------------|
  |---|   |-|   |-|   |-|   |-|     |---|   |-|   |-|   |-|   |----------------|
   PM     PM    PM    PM    PM       PM     PM    PM    PM    PM

                                h                                 h
e|-----------------------------------------------------------------------------|
B|-----------------------------------------------------------------------------|
G|-----------------------------------------------------------------------------|
D|-----2-----0-----3-----2-----02--------2-----0-------------------------------|
A|-0-0-----0-----0-----0-----0-----------------------3-----2-------------------|
E|-----------------------------------0-0-----0-----0-----0-----0--3~~~---------|
  |---|   |-|   |-|   |-|   |-|     |---|   |-|   |-|   |-|   |----------------|
   PM     PM    PM    PM    PM       PM     PM    PM    PM    PM

                                h                                 h
e|-----------------------------------------------------------------------------|
B|-----------------------------------------------------------------------------|
G|-----------------------------------------------------------------------------|
D|-----2-----0-----3-----2-----02--------2-----0-----3-----2-----02------------|
A|-----------------------------------------------------------------------------|
E|-0-0---0-0---0-0---0-0---0-0-------3-3---3-3---3-3---3-3---3-3---------------|
  |---| |---| |---| |---| |---|     |---| |---| |---| |---| |------------------|
   PM     PM    PM    PM    PM       PM     PM    PM    PM    PM

                                h                                 h
e|-----------------------------------------------------------------------------|
B|-----------------------------------------------------------------------------|
G|-----------------------------------------------------------------------------|
D|-----2-----0-----3-----2-----02--------2-----0-------------------------------|
A|-0-0---0-0---0-0---0-0---0-0-----------------------3-----2-------------------|
E|-----------------------------------0-0---0-0---0-0---0-0---0-0--3~~~---------|
  |---| |---| |---| |---| |---|     |---| |---| |---| |---| |------------------|
Tap to rate this tab
 
# A B C D E F G H I J K L M N O P Q R S T U V W X Y Z