Song name
# A B C D E F G H I J K L M N O P Q R S T U V W X Y Z

Lewis Juliette - I Can Hardly Wait tab

t. See http://www.olga.net/faq/ for more information.                     #
#-----------------------------------------------------------------------------#

Date: Sun, 14 Mar 1999 17:06:53 +0100
From: mihau 
Subject: l/lewis_juliette/i_can_hardly_wait.tab

I Can Hardly Wait
as performed by Juliette Lewis
from the soundtrack of "Strange Days"

last change: march 8th, 1999

tabbed by Joe Lupo & mihau (added some corrections) 
(jlupo@eden.rutgers.edu)
(mihau@gmx.net | http://members.xoom.com/mihau/tab/)


[main riff]
(play 2 times for intro)

        G5       Eb    D?    Bb5      D5  
E|-||----------------------------------------------||-
B|-||*-----------4--4--3--------------3---3-3--3--*||-
G|-||------------3--3--3-----3~--3----2---2-2--2---||-
D|-||---5~--5--0h1--1--0--0--3~--3----0---0-0--0---||-
A|-||*--5~--5----------------1~--1----------------*||-
E|-||---3~--3--------------------------------------||-
            .                    .
            -                    _


[distorted riff]

        G5            D5            Bb5           F5
E|-||-----------------------------------------------------------||-
B|-||*---------------------------------------------------------*||-
G|-||-----------------7---7--7--7---3---3--3--3-----------------||-
D|-||---5---5--5--5---7---7--7--7---3---3--3--3---3---3--3--3---||-
A|-||*--5---5--5--5---5---5--5--5---1---1--1--1---3---3--3--3--*||-
E|-||---3---3--3--3-------------------------------1---1--1--1---||-
Tap to rate this tab
# A B C D E F G H I J K L M N O P Q R S T U V W X Y Z